Cifra Club

I'll Fly With You

Gigi D'Agostino

Cifrado: Principal (guitarra y guitarra eléctrica)
tono: D
Riff 1:
E|---------0---------------0---------------0---------------0--------
B|-----3-------3-------2-------2-------3-------3-------3-------3----
G|---2---2---2---2---3---3---3---3---4---4---4---4---4---4---4---4--
D|-0---------------4---------------4---------------5----------------
A|------------------------------------------------------------------
E|------------------------------------------------------------------

Riff 2:
E|---5---3---2-----5---3---2-----5---3---2-----5---3---2------------
B|-3---3---3-----2---2---2---3-3---3---3-----3---3---3---3-3--------
G|------------------------------------------------------------------
D|------------------------------------------------------------------
A|------------------------------------------------------------------
E|------------------------------------------------------------------

Riff 3:
E|--10-------9------7-------7------10------6------7-------10--------
B|--10----10--------8-----8-8------10----8--------8-----8-----------
G|--7---7-----------7---7----------7---7----------7---7-------------
D|------------------------------------------------------------------
A|------------------------------------------------------------------
E|------------------------------------------------------------------

Riff 4:
E|------------------------------------------------------------------
B|--3-3-3-3-3-3-3-2-2-2-2-2-2-2-3-3-3-3-3-3-3-3-3-3-3-3-3-3---------
G|--2-2-2-2-2-2-2-3-3-3-3-3-3-3-4-4-4-4-4-4-4-4-4-4-4-4-4-4---------
D|--0-0-0-0-0-0-0-4-4-4-4-4-4-4-4-4-4-4-4-4-4-5-5-5-5-5-5-5---------
A|------------------------------------------------------------------
E|------------------------------------------------------------------

(Riff 1)
I still believe in your eyes;
I just don't care what you've done in your life.
Baby I'll always be here by your side;
Don't leave me waiting too long, please come by!

(Riff 1)
I still believe in your eyes;
There is no choice, I belong to your life.
Because I, I live to love you some day;
You'll be my baby and we'll fly away

(Riff 2)
And I'll fly with you
I'll fly with you
I'll fly with you
And I'll fly with you

(Riff 3)
Lararara rarara larara
Nararara rarara

(Riff 3 / Riff 4)
Every day and every night,
I always dream that you are by my side.

Oh, baby, every day and every night,
We'll I said everything's gonna be allright.

(Riff 4)
And I'll fly with you
I'll fly with you
And I'll fly with you

Intro: D F# Bm G D F# Bm G

D          F#           Bm
I still believe in your eyes;
G             D                 F#           Bm
I just don't care what you have done in your life.
G          D         F#          Bm
Baby i'll always be here by your side;
G               D           F#               Bm
Don't leave me waiting too long, please come by!
G           D         F#             Bm
I,  i,  i,  i still believe in your eyes;
  G           D         F#             Bm
There is no choice, I belong to your life.
 G        D                F#        Bm
Because I I  will live to love you someday;
G             D        F#           Bm
You'll be my baby and we'll  fly away
    G              D     F#   Bm
And i'll fly with you,
G              D      F#  Bm
I'll fly with you,
G              D       F#  Bm     G
I'll fly with you!!!
 D            F#             Bm     G
You are, are, are, are, are, are!!!
D             F#             Bm      G
You are, are, are, are, are, are!!!
D             F#             Bm     G
You are, are, are, are, are, are!!!

( D  F#  Bm  G ) (2x)

D         F#        Bm
Every day and every night,
G         D             F#      Bm
I always dream that you are by my side.
G          D        F#       Bm
Oh, baby, ev´ry day and ev´ry night,
G            D            F#         Bm
Well I said ev´rything's gonna be alright.
    G              D     F#   Bm
And i'll fly with you,
G              D      F#  Bm
I'll fly with you,
G              D      F#  Bm    G
I'll fly with you!!!
 D            F#            Bm     G
You are, are, are, are, are, are!!!
D             F#            Bm     G
You are, are, are, are, are, are!!!

( D  F#  Bm  G ) (5x)

D        F#m   Bm      G
        Dream  of me!
D          F#          Bm
I still believe in your eyes;
G             D                  F#         Bm
I just don't care what you have done in your life.
G         D          F#         Bm
Baby i'll always be here by your side;
G               D           F#             Bm
Don't leave me waiting too long, please come by!
G           D         F#          Bm
I,  i,  i,  i still believe in your eyes;
  G           D          F#          Bm
There is no choice, I belong to your life.
 G        D                F#         Bm
Because I I  will live to love you someday;
 G            D        F#       Bm
You'll be my baby and we'll fly away
     G             D     F#   Bm
And i'll fly with you,
G              D      F#  Bm
I'll fly with you,
G              D      F#  Bm    G
I'll fly with you!!!

D         F#       Bm
Ev´ry day and ev´ry night,
G          D            F#       Bm
I always dream that you are by my side.
G          D        F#        Bm
Oh, baby, ev´ry day and ev´ry night,
 G           D            F#      Bm
Well I said ev´rything's gonna be alright.
    G              D     F#  Bm
And i'll fly with you,
G              D      F#  Bm
I'll fly with you,
G              D      F#  Bm   G
I'll fly with you!!!
 D            F#             Bm   G
You are, are, are, are, are, are!!!
D             F#             Bm     G
You are, are, are, are, are, are!!!
00:00 / 00:00
Otros videos de esta canción
Repetir
Otros videos de esta canción
Composición de Daniele Montagner / Gigi D'Agostino / P. Sandrini
Colaboración y revisión:
  • Gabriel Amorim
  • Felipe Ribeiro
809 exhibiciones
    • ½ Tono
    • A
    • Bb
    • B
    • C
    • Db
    • D
    • Eb
    • E
    • F
    • F#
    • G
    • Ab
  • Agregar a la lista
    00:00 / 00:00
    OK