Cifra Club

Esperando Na Janela

Gilberto Gil

Cifrado: Principal (guitarra y guitarra eléctrica)
Selo Cifra Club: esta cifra foi revisada para atender aos critérios oficiais da nossa Equipe de Qualidade.
tono: E
[Intro] B2  E  B2  E
        B2  E  B2  E

[Tab - Intro]

   B2                 E
E|------------------------------------------|
B|----2---2-----2---2------0---0----0---0---|
G|----4---4-----4---4------1---1----1---1---|
D|----4---4-----4---4------2---2----2---2---| (4x)
A|-2---------2---------------2-2------2-2---|
E|------2-2-------2-2---0---------0---------|

[Tab - Solo]

[Parte 1 De 4]
E|----------------------5-5-4-4-------4-----|
B|---5--7-5---------------------7-7-5-------|
G|-4----------4--6-4------------------------|
D|----------6-------------------------------|
A|------------------------------------------|
E|------------------------------------------|

[Parte 2 De 4]
E|----------------------5-5-4-4-------------|
B|---5--7-5---------------------7-7-5-5-----|
G|-4----------4--6-4------------------------|
D|----------6-------------------------------|
A|------------------------------------------|
E|------------------------------------------|

[Parte 3 De 4]
E|----12--14-12-----------------------------|
B|-12--------------12--14-12----------------|
G|--------------13--------------------------|
D|------------------------------------------|
A|------------------------------------------|
E|------------------------------------------|

E|-17-17-16-16-14-14----16------------------|
B|-------------------17---------------------|
G|------------------------------------------|
D|------------------------------------------|
A|------------------------------------------|
E|------------------------------------------|

[Parte 4 De 4]
E|----12--14-12-----------------------------|
B|-12--------------12--14-12----------------|
G|--------------13--------------------------|
D|------------------------------------------|
A|------------------------------------------|
E|------------------------------------------|

E|-17-17-16-16-14-14------------------------|
B|-------------------17-17------------------|
G|------------------------------------------|
D|------------------------------------------|
A|------------------------------------------|
E|------------------------------------------|

[Primeira Parte]

[Tab - Primeira Parte]

Parte 1 de 2  
   B2                 E
E|------------------------------------------|
B|----2---2-----2---2------0---0----0---0---|
G|----4---4-----4---4------1---1----1---1---|
D|----4---4-----4---4------2---2----2---2---|
A|-2---------2---------------2-2------2-2---|
E|------2-2-------2-2---0---------0---------|

Parte 2 de 2
   B2                   E   A   E
E|----------------------0-------0-----------|
B|----2---2-----2---2---0---2---0-----------|
G|----4---4-----4---4---1---2-1-1-----------|
D|----4---4-----4---4---2---2---2-----------|
A|-2---------2----------2---0---2-----------|
E|------2-2-------2-2---0-------0-----------|

                             B2
Ainda me lembro do seu caminhar
                                  E
Seu jeito de olhar, eu me lembro bem
                             B2
Fico querendo sentir o seu cheiro
                         E
É daquele jeito que ela tem

                               B2
O tempo todo eu fico feito tonto
                                E
Sempre procurando, mas ela não vem
                           B2
E esse aperto no fundo do peito

Desses que o sujeito 
               E
Não pode aguentar, ah
                             B2
E esse aperto aumenta meu desejo
                                 E  
Eu não vejo a hora de poder lhe falar

( A  E )

[Refrão]

[Tab - Refrão]

    E   A   E
E|--0-------0-------------------------------|
B|--0---2---0-------------------------------|
G|--1---2-1-1-------------------------------|
D|--2---2---2-------------------------------|
A|--2---0---2-------------------------------|
E|--0-------0-------------------------------|

                       F#m         B7
Por isso eu vou na casa dela, ai, ai
                      G#m      C#m
Falar do meu amor pra ela, vai
                      F#m         B7
Tá me esperando na janela, ai, ai
                   E      
Não sei se vou me segurar

                         F#m         B7
Por isso eu vou na casa dela, ai, ai
                      G#m      C#m
Falar do meu amor pra ela, vai
                      F#m         B7
Tá me esperando na janela, ai, ai
                   E      A  E
Não sei se vou me segurar

[Solo] B2  E  B2  E 
       B2  E  B2  E 

[Primeira Parte]

                             B2
Ainda me lembro do seu caminhar
                                  E
Seu jeito de olhar, eu me lembro bem
                             B2
Fico querendo sentir o seu cheiro
                         E
É daquele jeito que ela tem

                               B2
O tempo todo eu fico feito tonto
                                E
Sempre procurando, mas ela não vem
                           B2
E esse aperto no fundo do peito

Desses que o sujeito 
               E
Não pode aguentar, ah
                             B2
E esse aperto aumenta meu desejo
                                 E  
Eu não vejo a hora de poder lhe falar

( A  E )

[Refrão]

                       F#m         B7
Por isso eu vou na casa dela, ai, ai
                      G#m      C#m
Falar do meu amor pra ela, vai
                      F#m         B7
Tá me esperando na janela, ai, ai
                   E      
Não sei se vou me segurar

                         F#m         B7
Por isso eu vou na casa dela, ai, ai
                      G#m      C#m
Falar do meu amor pra ela, vai
                      F#m         B7
Tá me esperando na janela, ai, ai
                   E      A  E
Não sei se vou me segurar

[Solo Final] B  E  B  E

[Tab - Final]

Parte 1 de 2
   B2                   E
E|------------------------------------------|
B|----2---2-----2---2------0---0----0---0---|
G|----4---4-----4---4------1---1----1---1---|
D|----4---4-----4---4------2---2----2---2---|
A|-2---------2---------------2-2------2-2---|
E|------2-2-------2-2---0---------0---------|

Parte 2 de 2
   B2                   E
E|----------------------------------------0-|
B|----2---2-----2---2------0---0----0---0-0-|
G|----4---4-----4---4------1---1----1---1-1-|
D|----4---4-----4---4------2---2----2---2-2-|
A|-2---------2---------------2-2------2-2-2-|
E|------2-2-------2-2---0---------0-------0-|

[Tab - Solo]

[Parte 1 De 2]
E|----------------------5-5-4-4-------4-----|
B|---5--7-5---------------------7-7-5-------|
G|-4----------4--6-4------------------------|
D|----------6-------------------------------|
A|------------------------------------------|
E|------------------------------------------|

[Parte 2 De 2]
E|----12--14-12-----------------------------|
B|-12--------------12--14-12----------------|
G|--------------13--------------------------|
D|------------------------------------------|
A|------------------------------------------|
E|------------------------------------------|

E|-17-17-16-16-14-14------------------------|
B|-------------------17-17------------------|
G|------------------------------------------|
D|------------------------------------------|
A|------------------------------------------|
E|------------------------------------------|

[Refrão Final]

                       F#m        B7
Por isso eu vou na casa dela, ai, ai
                      G#m      C#m
Falar do meu amor pra ela, vai
                      F#m         B7
Tá me esperando na janela, ai, ai
                   E       
Não sei se vou me segurar

                         F#m        B7
Por isso eu vou na casa dela, ai, ai
                      G#m      C#m
Falar do meu amor pra ela, vai
                      F#m         B7
Tá me esperando na janela, ai, ai
                   E      A  E
Não sei se vou me segurar
Otros videos de esta canción
    747.550 exhibiciones
    • Simplificar cifrado
      • ½ Tono
      • A
      • Bb
      • B
      • C
      • Db
      • D
      • Eb
      • E
      • F
      • F#
      • G
      • Ab
    • Agregar a la lista

    Afinación de cifrado

    Afinador online

      Capítulos
      • Tocando a Música
      • Apresentação / Equipamentos
      • Acordes da Introdução
      • Tocando Introdução da Música
      • Ensinando Ritmo da Introdução
      • Acorde Novo da Primeira Parte
      • Tocando Primeira Parte
      • Ensinando Ritmo da Primeira Parte - Parte 1 de 2
      • Ensinando Ritmo da Primeira Parte - Parte 2 de 2
      • Acordes Novos do Refrão
      • Tocando Refrão
      • Ensinando Ritmo do Refrão
      • Dica
      • Tocando Solo
      • Ensinando Solo - Parte 1 de 4
      • Ensinando Solo - Parte 2 de 4
      • Ensinando Solo - Parte 3 de 4
      • Ensinando Solo - Parte 4 de 4
      • Tocando Solo Final da Música
      • Ensinando Base do Solo Final - Parte 2 de 2
      • Ensinando Solo Final - Parte 1 de 2
      • Ensinando Solo Final - Parte 2 de 2
      • Encerramento
      OK