Cifra Club

Esperando Na Janela

Gilberto Gil

Tablatura: Principal
reproducciones 1.573
Tono: E
[Intro]  B7  E  B7  E

E|---------------------------------------------------|
B|-----7--------------10-10-9-9-7-7---9--------------|
G|---9---9-------6------------------9-9--------------|
D|-9---------6h9---9---9------9---9------------------|
A|---------------------------------------------------|
E|---------------------------------------------------|

E|---------------------------------------------------|
B|-----7--------------10-10-9-9-7-7------------------|
G|---9---9-------6------------------9-9--------------|
D|-9---------6h9---9---9------9---9---6--------------|
A|---------------------------------------------------|
E|---------------------------------------------------|

E                             F#m
 Ainda me lembro do seu caminhar
                B7                  E
Do seu jeito de olhar eu me lembro bem
                             F#m
Fico querendo sentir o seu cheiro
           B7            E
E daquele jeito que ela tem
                            F#m
O tempo todo eu fico feito tonto
             B7                E
Sempre procurando mas ela não vem
                         F#m
Esse aperto no fundo do peito
                B7                  E
Desses que o sujeito não pode aguentar
                             F#m
Esse aperto aumenta o meu desejo
                 B7                E    A  E
E eu não vejo a hora de poder lhe falar

E|---------------------------------------------------|
B|------10-9-----------------------------------------|
G|--9---------9--10----------------------------------|
D|------7--6-----------------------------------------|
A|--7---------7--8-----------------------------------|
E|---------------------------------------------------|

[Refrão]

E|---------------------------------------------------|
B|--------------------------------------10--9--------|
G|-----------------------------------9---------9--10-|
D|-------2-1---------4----------2-1-----7---6--------|
A|-----4-----------6---7------4------7---------7--8--|
E|-2h5---------4h7--------2h5------------------------|


                          F#m
   Por isso eu vou na casa dela
B7                       G#m7     C#m7
   Falar do meu amor pra ela, ai, ai
                    F#m
Tá me esperando na janela
B7                     E
  Não sei se vou me segurar

                          F#m
   Por isso eu vou na casa dela
B7                       G#m7     C#m7
   Falar do meu amor pra ela, ai, ai
                    F#m
Tá me esperando na janela
B7                     E   A  E
  Não sei se vou me segurar
Acordes para:
    Compositor: Manuca Almeida / Raimundinho Do Acordeon / Targino GondimColaboración y revision:
    • Marcos Paulo
    • MAYCON IRIA

    0 comentarios

      mostrar más comentarios

      ¿Conseguiste tocar?

      13tocaron1aún no

      ¡Graba un vídeo tocando Esperando Na Janela y envianoslo!

      00:00 / 00:00
      outros vídeos desta música
      repetirqualidadeautomática
      Outro vídeos desta música
        00:00 / 00:00
        automática
        OK