Cifra Club

Djobi Djoba

Gipsy Kings

Cifrado: Principal (guitarra y guitarra eléctrica)
tono: Ab (con acordes en la forma de G) Capotraste en 1ª casa
Intro Solo 2x:
                   G                        G                    F#m                 F#m5+
E|------------------------------------------------------------------------------------------|
B|-------5h6---5h6-5h6-5h6---------5h6---5h6-5h6-5h6--8-8-8-8h9-8h9-8h9---10-10-10----------|
G|-5--7----------------------5--7--------------------------------------------------11-11-11-|
D|------------------------------------------------------------------------------------------|
A|------------------------------------------------------------------------------------------|
E|------------------------------------------------------------------------------------------|

F#m5+    G
        Ay niña
                         F#m
Yo te encuentro solita por la calle
            E
Yo me siento enamorado
           C9        D
Yo me siento triste solo

Refrão 2x:
F#5+                               F#m
       Djobi djoba, Cada dia yo te quiero mas
                                    G
Djobi djobi, djobi djoba, Cada dia yo te quiero mas
                                    D               F#m5+
Djobi djobi, djobi djoba, Cada dia yo te quiero mas

Solo 2x:
    F#m5+
E|------------------------------------------------------------------------------------------|
B|-------5h6---5h6-5h6-5h6---------5h6---5h6-5h6-5h6--8-8-8-8h9-8h9-8h9---10-10-10----------|
G|-5--7----------------------5--7--------------------------------------------------11-11-11-|
D|------------------------------------------------------------------------------------------|
A|------------------------------------------------------------------------------------------|
E|------------------------------------------------------------------------------------------|

F#m5+     G
      Que no me importa
                  F#m
Que la distancia ya nos separe
                  E
Yo me contento me retir
              C9           D
Y no me diga ay para guarja ja

Refrão 4x:
F#m5+                               F#m
       Djobi djoba, Cada dia yo te quiero mas
                                    G
Djobi djobi, djobi djoba, Cada dia yo te quiero mas
                                    D               F#m5+
Djobi djobi, djobi djoba, Cada dia yo te quiero mas
00:00 / 00:00
Otros videos de esta canción
Repetir
Otros videos de esta canción
Composición de Gipsy Kings / Los Reyes
Colaboración y revisión:
  • Fernando Agert
  • Patricia Albuquerque
  • Alejandro Moraga
7.246 exhibiciones
    • ½ Tono
    • A
    • Bb
    • B
    • C
    • Db
    • D
    • Eb
    • E
    • F
    • F#
    • G
    • Ab
  • Agregar a la lista
    00:00 / 00:00
    OK