Cifra Club

Life Got Cold

Girls Aloud

Cifrado: Principal (guitarra y guitarra eléctrica)
Selo Cifra Club: esta cifra foi revisada para atender aos critérios oficiais da nossa Equipe de Qualidade.
tono: F
Album: Sound of the Underground


Verse
The main riff played on an acoustic guitar

e|-------------------------------------------------|
B|-------------------------------------------------|
G|-------------------------------------------------|
D|----0-2-3-2---0-----------------0-2-3-2---0-2-0--|
A|--0---------3-----0---0-3-0---3---------3--------|
E|--------------------3----------------------------|


Chorus
A second guitar plays this in the background

e|--------3--------5--------1-0-----|--------3-----------------1-0-----|
B|------3--------5--------3-----3---|------3-----------------3-----3---|
G|----3--------5--------2-----------|----3------------5----2-----------|
D|--5--------7--------0-------------|--5------------7----0-------------|
A|----------------------------------|-------------7--------------------|
E|----------------------------------|-----------5----------------------|

e|--------3--------5--------1-0-----|--------------------------1-0-----|
B|------3--------5--------3-----3---|--------3--------5------3-----3---|
G|----3--------5--------2-----------|------3--------5------2-----------|
D|--5--------7--------0-------------|----5--------7------0-------------|
A|----------------------------------|--5--------7----------------------|
E|----------------------------------|----------------------------------|



Bridge
Play these chords

Bb     C     Dm     Dm


Please rate
Tabbed by NintEndO
Otros videos de esta canción
    27 exhibiciones
      • ½ Tono
      • A
      • Bb
      • B
      • C
      • Db
      • D
      • Eb
      • E
      • F
      • F#
      • G
      • Ab
    • Agregar a la lista

    Afinação da cifra

    Afinador online

      Ops (: Contenido disponible solo en portugués.
      OK