Cifra Club

Aprenda

Breakdown

Girugamesh

Tablatura: Principal (guitarra)
tono: G
Intro:
C|---------------------------------|
G|---------------------------------|
E|---------------------------------|
B|---4----7---9---0---2------------|
F|---4----7---9---0---2------------|
B|---4----7---9---0---2------------|

C|--------------------------------|
G|--------------------------------|
E|--------------------------------|
B|---4----7---9------6---7--------|
F|---4----7---9-------------------|
B|---4----7---9-------------------|

C|-----------------------------------------|
G|-----------------------------------------|
E|-----------------------------------------|
B|--4-4-4--7-7-7--9-9-9--0-0-0--2-2-2------|
F|--4-4-4--7-7-7--9-9-9--0-0-0--2-2-2------|
B|--4-4-4--7-7-7--9-9-9--0-0-0--2-2-2------|

C|------------------------------|
G|------------------------------|
E|-------6----------------------|
B|--4----4----------------------|
F|--4----4----------------------|
B|--4----4----------------------|

Verso:
C|-----------------------------|
G|-----------------------------|
E|-----------------------------|
B|-----------------------------|
F|--4-4--2--4---2--4--2--------|
B|--4-4--2--4---2--4--2--------|

C|-----------------------------|
G|-----------------------------|
E|-----------------------------|
B|-----------------------------|
F|--4-4--2--4---2--5--2--------|
B|--4-4--2--4---2--5--2--------|

C|-----------------------------|
G|-----------------------------|
E|-----------------------------|
B|-----------------------------|
F|--4-4--2--4---2--4--2--------|
B|--4-4--2--4---2--4--2--------|

C|-------------------------------|
G|-------------------------------|
E|-------------------------------|
B|---------------2--2-2-2--------|
F|--4-4--2--4----2--2-2-2--------|
B|--4-4--2--4----2--2-2-2--------|

C|---------------------------------------------|
G|---------------------------------------------|
E|---11-11-11-11-11-11---9-9-9-9-9-9-----------|
B|---11-11-11-11-11-11---9-9-9-9-9-9-----------|
F|---9--9--9--9--9--9----7-7-7-7-7-7-----------|
B|---------------------------------------------|

C|------------------------------------------|
G|------------------------------------------|
E|--7-7-7-7-7-7-------9-9-9-9-9-9-----------|
B|--7-7-7-7-7-7-------9-9-9-9-9-9-----------|
F|--5-5-5-5-5-5-------7-7-7-7-7-7-----------|
B|------------------------------------------|

Refrão:
C|-------------------------------------------------|
G|-------------------------------------------------|
E|-------------------------------8-8-8-8-8-8-------|
B|--4-4-4-4-4-4---8-8-8-8-8-8----8-8-8-8-8-8-------|
F|--4-4-4-4-4-4---8-8-8-8-8-8----6-6-6-6-6-6-------|
B|--4-4-4-4-4-4---8-8-8-8-8-8----------------------|

C|-----------------------------------------------------|
G|-----------------------------------------------------|
E|----------------11-11-11-11-11-11-11-11-11-11-11-11--|
B|--8-8-8-8-8-8---11-11-11-11-11-11-11-11-11-11-11-11--|
F|--8-8-8-8-8-8---9--9--9--9--9--9--9--9--9--9--9--9---|
B|--8-8-8-8-8-8---9--9--9--9--9--9--9--9--9--9--9--9---|

C|----------------------------------------------------|
G|----------------------------------------------------|
E|--13-13-13-13-13-13-13-13-13-13-13-13---------------|
B|--13-13-13-13-13-13-13-13-13-13-13-13---------------|
F|--11-11-11-11-11-11-11-11-11-11-11-11---------------|
B|--11-11-11-11-11-11-11-11-11-11-11-11---------------|

verso 2:
C|--------------------------------------------|
G|--------------------------------------------|
E|--------------------------------------------|
B|--------------------------------------------|
F|--4-4-4-4-4-4-4-4---2-2-2-2-2-2-2-2---------|
B|--4-4-4-4-4-4-4-4---2-2-2-2-2-2-2-2---------|

C|--------------------------------------------|
G|--------------------------------------------|
E|--------------------------------------------|
B|--------------------------------------------|
F|--0-0-0-0-0-0-0-0---2-2-2-2-----------------|
B|--0-0-0-0-0-0-0-0---2-2-2-2-----------------|

Ponte:
C|-------------------------------------------------|
G|-------------------------------------------------|
E|-------------------------------------------------|
B|-------------------------------------------------|
F|--4-4--4-4--4--9-8--2---4-4--4-4--4--0--2--3-----|
B|--4-4--4-4--4--9-8--2---4-4--4-4--4--0--2--3-----|

C|-----------------------------------------------|
G|-----------------------------------------------|
E|-----------------------------------------------|
B|--4-4-4--7-7-7--9-9-9--10-10-10--11-11-11------|
F|--4-4-4--7-7-7--9-9-9--10-10-10--11-11-11------|
B|--4-4-4--7-7-7--9-9-9--10-10-10--11-11-11------|
Colaboración y revision:
  • Thyago
50 reproducciones
    • ½ Tono
    • A
    • Bb
    • B
    • C
    • Db
    • D
    • Eb
    • E
    • F
    • F#
    • G
    • Ab
  • Adicionar à lista

    0 comentarios

    Ver todos os comentários

    ¿Conseguiste tocar?

    0 Tocaram 0 Ainda não

    Grave um vídeo tocando Breakdown e nos envie!

    00:00 / 00:00
    outros vídeos desta música
    repetir qualidade Automático
    Outros vídeos desta música
    00:00 / 00:00
    Automático
    OK