Cifra Club

Aprenda

Kowarete Iku Sekai

Girugamesh

Tablatura: Principal (guitarra)
tono: C
(intro / verse )

-----------------------------------------------------------|
-----------------------------------------------------------|
-----1--------1------- 1--------1--------0----1------------|
--------3--------3-------3--------3---------------3--------|
--3--------3--------3-------3--------3---------------------|
-----------------------------------------------------------|

(1st chorus)
-----------------------------------------------------------------------------------------|
--------------------------------------------------------------1--------------------------|
-----------------------------------------------0---------------------0-------------------|
----------3----------------0--------------2-------2-----------------------2--------------|
-----3-------3--------2------2-------3---------------3-----------------------------------|
-1-----------------3---------------------------------------------------------------------|

(verse)
-------------------------------------------------------------|
-------------------------------------------------------------|
-----1--------1------- 1--------1--------0----1--------------|
--------3--------3-------3--------3---------------3----------|
--3--------3--------3-------3--------3-----------------------|
-------------------------------------------------------------|

(2nd chorus)
(several times)

(clear sound)
------------------------------------------------------------------------------------------|
--------------------------------------------------------------1---------------------------|
-----------------------------------------------0---------------------0--------------------|
----------3----------------0--------------2-------2-----------------------2---------------|
-----3-------3--------2------2-------3---------------3------------------------------------|
-1-----------------3----------------------------------------------------------------------|

And Then

(Crunch)
--------------X----X---------------X----X---------------------------X-X--------------|
--------------X----X----3----3----X----X----1----1----1----1-----X-X-----------------|
--------------X----X----0----0----X----X----0----0----0----0-----X-X-----------------|
---3----3----X----X----0----0----X----X----2----2----2----2-----X-X------------------|
---3----3----X----X----2----2----X----X----3----3----3----3-----X-X------------------|
---1----1----X----X----3----3----X----X---------------------------X-X----------------|

Again and again ...

(solo)
(during Satochi's scream)

(Again several times)
--------------------------------------------------------------------------|
----12----12----X----X----7----7----X----X----8----8----------------------|
-----X-----X-----X----X----X----X----X----X----X----X---------------------|
-----9-----9-----X----X----4----4----X----X----5----5---------------------|
--------------------------------------------------------------------------|
--------------------------------------------------------------------------|

(outro)
(Many Times)

(Clear Sound)
------------------------------------------------------------------------------------------|
---------6--------------------8----------------------9---------------11-------------------|
------6------6----------8---------8-----------10-------10----------------10---------------|
--6----------------8---------------------10------------------10----------------10---------|
------------------------------------------------------------------------------------------|
------------------------------------------------------------------------------------------|
Colaboración y revision:
  • Luis Fernando
128 reproducciones
    • ½ Tono
    • A
    • Bb
    • B
    • C
    • Db
    • D
    • Eb
    • E
    • F
    • F#
    • G
    • Ab
  • Adicionar à lista

    0 comentarios

    Ver todos os comentários

    ¿Conseguiste tocar?

    0 Tocaram 0 Ainda não

    Grave um vídeo tocando Kowarete Iku Sekai e nos envie!

    00:00 / 00:00
    outros vídeos desta música
    repetir qualidade Automático
    Outros vídeos desta música
    00:00 / 00:00
    Automático
    OK