Cifra Club

Tokyo Drifting

Glass Animals

Cifrado: Principal (guitarra y guitarra eléctrica)
Selo Cifra Club: esta cifra foi revisada para atender aos critérios oficiais da nossa Equipe de Qualidade.
tono: F#m
E|------------------------------------|
B|-9--9--9-12----9-----12-------9-12--|
G|------------11----11----11-10------9|
D|------------------------------------|
A|------------------------------------|
E|------------------------------------|

E|------------------------------------|
B|--12-9-12---------------------------|
G|----------10------------------------|
D|------------------------------------|
A|------------------------------------|
E|------------------------------------|
(repeat)

It is also played in a lower tone further
in the song:

E|------------------------------------|
B|------------------------------------|
G|------------------------------------|
D|--6--6--6-9---6----9-------6-9------|
A|------------9----9---9-8-------7----|
E|------------------------------------|

E|------------------------------------|
B|------------------------------------|
G|------------------------------------|
D|--9-6-9-----------------------------|
A|--------9---------------------------|
E|------------------------------------|
Otros videos de esta canción
    83 exhibiciones
      • ½ Tono
      • Am
      • Bbm
      • Bm
      • Cm
      • C#m
      • Dm
      • Ebm
      • Em
      • Fm
      • F#m
      • Gm
      • G#m
    • Agregar a la lista

    Afinación de cifrado

    Afinador online

      OK