Cifra Club

La papa sin catsup

Gloria Trevi

Cifrado: Principal (guitarra y guitarra eléctrica)
tono: Em
E|------------15-18b-18b-18b----15-18--15-----15----15------|
B|---------15------------------------18----18----18---------|
G|---17bh19-------------------------------------------------|
D|----------------------------------------------------------|
A|----------------------------------------------------------|
E|----------------------------------------------------------|

E|---------15h20h.15-18h15---------------------15-----------|
B|---15h18----------------15--18-16h15----------------------|
G|------------------------------------17-15h16--------------|
D|----------------------------------------------------------|
A|----------------------------------------------------------|
E|----------------------------------------------------------|

E|--/14----13----12-----10----8----6----5----3--------------|
B|----------------------------------------------------------|
G|-/14-14-13-13-12-12-11--11-9--9-7--7-5--5-4---------------|
D|----------------------------------------------------------|
A|----------------------------------------------------------|
E|----------------------------------------------------------|

E|---------3------------3------------3-------------|
B|-----3-6---6h3--3--6b---6h3--3--6b---6h3--3------|
G|--3h4----------5------------5------------5-------|
D|-------------------------------------------------|
A|-------------------------------------------------|
E|-------------------------------------------------|

E|-------------------------------------------------|
B|-------------------------------------------------|
G|----------4-6-7----------------------------------|
D|---4-5-7--2-4-5--4-4-5h6h.7----------------------|
A|---2-3-5---------2-2-3h4h.5----------------------|
E|-------------------------------------------------|
00:00 / 00:00
Otros videos de esta canción
Repetir
Otros videos de esta canción
Composición de Cesar Lazcano
50 vistas
    • ½ Tono
    • Am
    • Bbm
    • Bm
    • Cm
    • C#m
    • Dm
    • Ebm
    • Em
    • Fm
    • F#m
    • Gm
    • G#m
  • Agregar a la lista

    0 comentarios

    Ver todos los comentarios

    ¿Lograste tocar?

    0 Tocaron 1 Aún no

    ¡Graba un video tocando La papa sin catsup y envíanoslo!

    00:00 / 00:00
    OK