Cifra Club

No Regrets

Gob

Tab de bajo: Principal
Bassist-Craig Wood
Tabbed by:Ralph Conte

~let ring

Intro

G:--------------------------------------------------------------------------|
D:----------------listen to song for rythem---------------------------------|
A:--------------------------------------------------------------------------|
E:--12 12/slide up to 5 while strumming-5-5555-5555-5555555-5555-----5~--5~-|

Verse

G:--------------------------------------------------------------------------|
D:---------------listen to song for rythem----------------------------------|
A:--------------------------------------------------------------------------|
E:-00000000000000000-5555555555555555-000000000-2222222---------------------|

*The first version of the chorus sounds more like the song, but both versions can be 
both sound good*

Chorusx3

G:--------------------------------------------------------------------------|
D:-------------7-------------------only play 3rd time-----------------------|
A:---4-5-7-5----------5-4----4-2-------00000-77-5---------------------------|
E:-5---------5---5-55-----22------------------------------------------------|

Chorus variationx3

G:--------------------------------------------------------------------------|
D:-----------7-------------------only play 3rd time-------------------------|
A:---4-5-7-5---5--4-5-4---2-4-2-------00000-77-5----------------------------|
E:-5------------------------------------------------------------------------|

Verse

G:--------------------------------------------------------------------------|
D:---------------listen to song for rythem----------------------------------|
A:--------------------------------------------------------------------------|
E:-55555555555-000000000000000-5555555555555-0000000000-2222222-------------|


Chorusx3

G:--------------------------------------------------------------------------|
D:-------------7-------------------only play 3rd time-----------------------|
A:---4-5-7-5----------5-4----4-2--------777-5-------------------------------|
E:-5---------5---5-55-----22------------------------------------------------|

Chorus variationx3

G:--------------------------------------------------------------------------|
D:-----------7-------------------only play 3rd time-------------------------|
A:---4-5-7-5---5--4-5-4---2-4-2-------------777-5---------------------------|
E:-5------------------------------------------------------------------------|


Guitar Solo

G:---------------------------------------------------------------------------|
D:---------------listen to song for rythem-----------------------------------|
A:---------------------------------------------------------------------------|
E:-55555555555-000000000000000-5555555555555-0000000000-2222222--------------|

   play this part twice. then
G:--------------------------------------------------------------------------|
D:-------------7-------------------------------7----------------------------|
A:---4-5-7-5----------5-4----4-2-----4-5-7-5--------------------------------|
E:-5---------5---5-55-----22-------5---------5---222-333-5~-222-333-5*------|

 *Keep strumming 5 quietly*

Then, after the pick slide..

G:--------------------------------------------------------------------------|
D:--------------------------------------------------------------------------|
A:--------------------------------------------------------------------------|
G:-00000000-2222222222------------------------------------------------------|

Chorus/Outrox6

G:--------------------------------------------------------------------------|
D:-------------7------------------------------------------------------------|
A:---4-5-7-5----------5-4----4-2--------------------------------------------|
E:-5---------5---5-55-----22------------------------------------------------|

Chorus/outro variationx6

G:--------------------------------------------------------------------------|
D:-----------7--------------------------------------------------------------|
A:---4-5-7-5---5--4-5-4---2-4-2---------------------------------------------|
E:-5------------------------------------------------------------------------|

Ends on

G:--------------------------------------------------------------------------|
D:--------------------------------------------------------------------------|
A:-00000-77-5-0~------------------------------------------------------------|
E:--------------------------------------------------------------------------|
Compositor não encontrado.
14 vistas

0 comentarios

Ver todos los comentarios

¿Lograste tocar?

0 Tocaron 0 Aún no

¡Graba un video tocando No Regrets y envíanoslo!

00:00 / 00:00
Outros vídeos desta música
Repetir Calidad Automático
Outros vídeos desta música
00:00 / 00:00
Automático
OK