Cifra Club

Elanor Rigby

Godhead

Cifrado: Principal (guitarra y guitarra eléctrica)
tono: E
 Tabbed by Myke Newman, A_Violet_F*.
  
ELANOR RIGBY


Standard Tuning

I noticed that no-one seems to like tabbing
Crank up your amp or pedal distortion baby!

Intro/Bridge:

|-----------------------------|
|-----------------------------|
|--7----6----5----------------|
|--7----6----5----2-2---2--2--|
|--5----4----3----2-2---2--2--|
|-----------------0-0---0--0--| 

Intro/Bridge Version 2:

|--0----0----0----------------|
|--0----0----0----------------|
|--7----6----6----0-0---0--0--|
|--7----6----6----2-2---2--2--|
|--5----4----3----2-2---2--2--|
|-----------------0-0---0--0--| 

Chorus:

|-------------------------------|
|-------------------------------|
|--7-7-7-7-7-7-7-6-6-6-6-6-6-6--|
|--7-7-7-7-7-7-7-6-6-6-6-6-6-6--|
|--5-5-5-5-5-5-5-4-4-4-4-4-4-4--|
|-------------------------------|

|-----------------------------------|
|-----------------------------------|
|--5-5-5-5-5-5-5-5------------------|
|--5-5-5-5-5-5-5-5-2-2-2-2-2-2-2-2--|
|--3-3-3-3-3-3-3-3-2-2-2-2-2-2-2-2--|
|------------------0-0-0-0-0-0-0-0--|

Outro:

\"Aaahhh, look at all the lonely people...\"

|---------------------------------------|
|---------------------------------------|
|--7-7-7-7-7-7-7-7-7-7-7-7-7-7----------|
|--7-7-7-7-7-7-7-7-7-7-7-7-7-7-2-2-2-2--|
|--5-5-5-5-5-5-5-5-5-5-5-5-5-5-2-2-2-2--|
|------------------------------0-0-0-0--|

END!

There you go, it was easy.
So next time i wanna see more
Of you lazy ass b*****ds doing
Them, friggin' well make them and stop
Waiting for irritated people like me to

A_Violet_F*
 
:: Ultimate Guitar Archive :: 
http://* 



00:00 / 00:00
Otros videos de esta canción
Repetir
Otros videos de esta canción
Compositor no encontrado.
31 vistas
    • ½ Tono
    • A
    • Bb
    • B
    • C
    • Db
    • D
    • Eb
    • E
    • F
    • F#
    • G
    • Ab
  • Agregar a la lista

    0 comentarios

    Ver todos los comentarios
    00:00 / 00:00
    OK