Cifra Club

I stand alone

Godsmack

Cifrado: Principal (guitarra y guitarra eléctrica)
Selo Cifra Club: esta cifra foi revisada para atender aos critérios oficiais da nossa Equipe de Qualidade.
tono: E


Intro
|---------------------------------------------------
|---------------------------------------------------
|---------------------------------------------------
|-------------------------------------------------- 
|---------------------------------------------------
|---0-0-0-17-17------0-0-18-18------0-0-18-18-------
x7

|---------------------------------------------------
|---------------------------------------------------
|---------------------------------------------------
|---------------------------------------------------
|---------------------------------------------------
|---0-0-0-17-17------0-0-18-18------0-0-18-18\\-----x1

Verse 1
|---------------------------------------------------------------------------------------|
|---------------------------------------------------------------------------------------|
|---------------------------------------------------------------------------------------|
|-0-0-xx-0-0-xx-5-5-5--0-0-xx-0-0-xx-5p3-6-6--0-0-xx-0-0-xx-5-5-5--0-0-xx-0-0-xx--xx-x--|
|-0-0-xx-0-0-xx-5-5-5--0-0-xx-0-0-xx-5p3-6-6--0-0-xx-0-0-xx-5-5-5--0-0-xx-0-0-xx--xx-x--|
|-0-0-xx-0-0-xx-5-5-5--0-0-xx-0-0-xx-5p3-6-6--0-0-xx-0-0-xx-5-5-5--0-0-xx-0-0-xx--xx-x--|

|------------------------------------------------------------------------|
|------------------------------------------------------------------------|
|------------------------------------------------------------------------|
|-0-0-xx-0-0-xx-5-5-5--0-0-xx-0-0-xx-5p3-6-6--0-0-xx-0-0-xx-5-5-5--5~~---|
|-0-0-xx-0-0-xx-5-5-5--0-0-xx-0-0-xx-5p3-6-6--0-0-xx-0-0-xx-5-5-5--5~~---|
|-0-0-xx-0-0-xx-5-5-5--0-0-xx-0-0-xx-5p3-6-6--0-0-xx-0-0-xx-5-5-5--5~~---|

Chorus
|----------------------------------------------------|
|----------------------------------------------------|
|----------------------------------------------------|
|----------------------------------------------------| x3
|----------------------------------------------------|
|---0-0-0-17-17------0-0-18-18------0-0-18-18--------|

|----------------------------------------------------|
|----------------------------------------------------|
|----------------------------------------------------|
|----------------------------------------------------| x1 
|----------------------------------------------------|
|---0-0-0-17-17------0-0-18-18------0-0-18-18\\------|

Verse 2
|---------------------------------------------------------------------------------------|
|---------------------------------------------------------------------------------------|
|---------------------------------------------------------------------------------------|
|-0-0-xx-0-0-xx-5-5-5--0-0-xx-0-0-xx-5p3-6-6--0-0-xx-0-0-xx-5-5-5--0-0-xx-0-0-xx--xx-x--|
|-0-0-xx-0-0-xx-5-5-5--0-0-xx-0-0-xx-5p3-6-6--0-0-xx-0-0-xx-5-5-5--0-0-xx-0-0-xx--xx-x--|
|-0-0-xx-0-0-xx-5-5-5--0-0-xx-0-0-xx-5p3-6-6--0-0-xx-0-0-xx-5-5-5--0-0-xx-0-0-xx--xx-x--|

|---------------------------------------------------------------------------------------|
|---------------------------------------------------------------------------------------|
|---------------------------------------------------------------------------------------|
|-0-0-xx-0-0-xx-5-5-5--0-0-xx-0-0-xx-5p3-6-6--0-0-xx-0-0-xx-5-5-5--0-0-xx-0-0-xx-5p3-6-6|
|-0-0-xx-0-0-xx-5-5-5--0-0-xx-0-0-xx-5p3-6-6--0-0-xx-0-0-xx-5-5-5--0-0-xx-0-0-xx-5p3-6-6|
|-0-0-xx-0-0-xx-5-5-5--0-0-xx-0-0-xx-5p3-6-6--0-0-xx-0-0-xx-5-5-5--0-0-xx-0-0-xx-5p3-6-6|

Pre-Chorus
|-----------------------------------------|
|-----------------------------------------|
|----------------------------10-----------|
|---5--5--5--5--5-5/8--8--8--10--0--1-1---|
|---5--5--5--5--5-5/8--8--8--8---0--1-1---|
|---5--5--5--5--5-5/8--8--8--8---0--1-1---|

Chorus
|----------------------------------------------------|
|----------------------------------------------------|
|----------------------------------------------------|
|----------------------------------------------------| x1
|----------------------------------------------------|
|---0-0-0-17-17------0-0-18-18------0-0-18-18--------|

|----------------------------------------------------|
|----------------------------------------------------|
|----------------------------------------------------| x1
|----------------------------------------------------| 
|----------------------------------------------------|
|---0-0-0-17-17------0-0-18-18------0-0-18-18\\------|

|----------------------------------------|
|----------------------------------------|
|----------------------------------------|
|---5--5--5--5--5-5/8--8--8--8--8--8-8---|
|---5--5--5--5--5-5/8--8--8--8--8--8-8---|
|---5--5--5--5--5-5/8--8--8--8--8--8-8---|

|----------------------------------------------------|
|----------------------------------------------------|
|----------------------------------------------------|
|----------------------------------------------------| x1
|----------------------------------------------------|
|---0-0-0-17-17------0-0-18-18------0-0-18-18--------|

|----------------------------------------------------|
|----------------------------------------------------|
|----------------------------------------------------| x1
|----------------------------------------------------| 
|----------------------------------------------------|
|---0-0-0-17-17------0-0-18-18------0-0-18-18\\------|

|---------------------------------------|
|---------------------------------------|
|---------------------------------------|
|---5--5--5--5--5-5/8--8--8--8--8--1-1--|
|---5--5--5--5--5-5/8--8--8--8--8--1-1--|
|---5--5--5--5--5-5/8--8--8--8--8--1-1--|

|----------------------------------------------------|
|----------------------------------------------------|
|----------------------------------------------------|
|----------------------------------------------------| x1
|---------0--0-----------0---0----------0--0----------|
|---0-0-0-17-17------0-0-18-18------0-0-18-18--------|

|----------------------------------------------------|
|----------------------------------------------------|
|----------------------------------------------------| x1
|------------------------------------------------0~--| 
|---------0--0-----------0--------------0---0----0~--|
|---0-0-0-17-17------0-0-18-18------0-0-18-18\\--0~--|

Bridge
|------------------------------------------------|
|------------------------------------------------|
|------------------------------------------------|
|-------5-----5--2/5-5-5--2/3-3-3--0----0-----0--| x1
|-----3-----3----2/5-5-5--2/3-3-3--0--0-----0----|
|---3-----3------2/5-5-5--2/3-3-3--0------0------|

|-----------------------------------------------|
|-----------------------------------------------|
|-----------------------------------------------|
|-------5-----5--2/5-5-5--2/3-3-3------0-----0--| x1
|-----3-----3----2/5-5-5--2/3-3-3----0-----0----|
|---3-----3------2/5-5-5--2/3-3-3--0-----0------|
(2nd gtr - quiet)

|------------------------------------------------|
|------------------------------------------------|
|------------------------------------------------|
|-------5-----5--2/5-5-5--2/3-3-3--0----0-----0--| x1
|-----3-----3----2/5-5-5--2/3-3-3--0--0-----0----|
|---3-----3------2/5-5-5--2/3-3-3--0------0------|

|-----------------------------------|
|-----------------------------------|
|-----------------------------------|
|-------5-----5--2/5-5-5--2/3-3-3---| x1 then next part
|-----3-----3----2/5-5-5--2/3-3-3---|
|---3-----3------2/5-5-5--2/3-3-3---|

|------------------------------------------------------------------------|
|------------------------------------------------------------------------|
|------------------------------------------------------------------------|
|-0-0-xx-0-0-xx-5-5-5--0-0-xx-0-0-xx-5p3-6-6--0-0-xx-0-0-xx-5-5-5--5~~---|
|-0-0-xx-0-0-xx-5-5-5--0-0-xx-0-0-xx-5p3-6-6--0-0-xx-0-0-xx-5-5-5--5~~---|
|-0-0-xx-0-0-xx-5-5-5--0-0-xx-0-0-xx-5p3-6-6--0-0-xx-0-0-xx-5-5-5--5~~---|

Chorus
|----------------------------------------------------|
|----------------------------------------------------|
|----------------------------------------------------|
|----------------------------------------------------| x3
|----------------------------------------------------|
|---0-0-0-17-17------0-0-18-18------0-0-18-18--------|

|----------------------------------------------------|
|----------------------------------------------------|
|----------------------------------------------------| x1
|----------------------------------------------------| 
|----------------------------------------------------|
|---0-0-0-17-17------0-0-18-18------0-0-18-18\\------|

|----------------------------------------|
|----------------------------------------|
|----------------------------------------|
|---5--5--5--5--5-5/8--8--8--8--8--8-8---|
|---5--5--5--5--5-5/8--8--8--8--8--8-8---|
|---5--5--5--5--5-5/8--8--8--8--8--8-8---|

|----------------------------------------------------|
|----------------------------------------------------|
|----------------------------------------------------|
|----------------------------------------------------| x1
|----------------------------------------------------|
|---0-0-0-17-17------0-0-18-18------0-0-18-18--------|

|----------------------------------------------------|
|---------------------------------------------------
|--------------------------------------------------- x1
|---------------------------------------------------
|---------------------------------------------------
|---0-0-0-17-17------0-0-18-18------0-0-18-18\\-----

|---------------------------------------|
|---------------------------------------|
|---------------------------------------|
|---5--5--5--5--5-5/8--8--8--8--8--1-1--|
|---5--5--5--5--5-5/8--8--8--8--8--1-1--|
|---5--5--5--5--5-5/8--8--8--8--8--1-1--|

Outro
|---------------------------------------------------
|---------------------------------------------------
|---------------------------------------------------
|--------------------------------------------------- x8
|---------0--0-----------0--0-----------0--0--------
|---0-0-0-17-17------0-0-18-18------0-0-18-18-------
Otros videos de esta canción
    24.206 exhibiciones
      • ½ Tono
      • A
      • Bb
      • B
      • C
      • Db
      • D
      • Eb
      • E
      • F
      • F#
      • G
      • Ab
    • Agregar a la lista

    Afinación de cifrado

    Afinador online

      OK