Cifra Club

Stress

Godsmack

Cifrado: Principal (guitarra y guitarra eléctrica)
Selo Cifra Club: esta cifra foi revisada para atender aos critérios oficiais da nossa Equipe de Qualidade.
tono: E
intro(main riff) :

E|-----------------------------|------------------------|
B|-----------------------------|------------------------|
G|-----------------------------|------------------------|
D|--0h4-4-4-4--0h4-4-4-4--0h4-5|-0h4-4-4-4--0h4-4-4-4--4|
A|--0h4-2-2-2--0h2-2-2-2--0h2-3|-0h2-2-2-2--0h2-2-2-2--2|
E|-----------------------------|------------------------|

chorus:

E|--------------|---------------------|-----------------|
B|--------------|---------------------|-----------------|
G|--------------|---------------------|-----------------|
D|/9---9---9-9-9| 7---7---12-(12)\7-(7)|0h4-4-4-4--0h4...|
A|/7---7---7-7-7| 5---5---10-(10)\5-(5)|0h2-2-2-2--0h2...|
E|--------------|---------------------|-----------------|

Interlude:
                                     
E|-------------------------------|----------------------|
B|-------------------------------|----------------------|
G|-------------------------------|------r| epeat----------|
D|2-2-2-2-2-2-2-2-2-3-3-3-0-0-0-0| 2-2-2..........-------|
A|-------------------------------|----------------------|
E|2-2-2-2-2-2-2-2-2-3-3-3-0-0-0-0| 2-2-2..........-------|
  - - - - - - - - - - - - - - - - - - - - - - - - - - - -
  palm muted                       palm muted

Bridge:

E|---------------------------------|--------------------|
B|---------------------------------|--------------------|
G|---------------------------------|--------------------|
D|10s9-9-9-9-9-9-9-9---9-9-10s9-9-9| 10s9-9-9--7-7-7-7-7-|
A|10s9-9-9-9-9-9-9-9---9-9-10s9-9-9| 10s9-9-9--7-7-7-7-7-|
E|10s9-9-9-9-9-9-9-9---9-9-10s9-9-9| 10s9-9-9--7-7-7-7-7-|
Otros videos de esta canción
    2 exhibiciones
      • ½ Tono
      • A
      • Bb
      • B
      • C
      • Db
      • D
      • Eb
      • E
      • F
      • F#
      • G
      • Ab
    • Agregar a la lista

    Afinação da cifra

    Afinador online

      Ops (: Contenido disponible solo en portugués.
      OK