Cifra Club

Carlita

Goldfinger

Tab de bajo: Principal
From the album "Hangups" on MOJO Records
Music and Lyrics by:
(c) 1997 MOJO Records
----------
Tabbed by: Justin Reynolds (*)
Ska/Punk/311 Bass Tab Archive - http://*

Riff 1:
=====

G:-----------------------
D:------3-5-6-5-4-3---
A:-3--5-----------------
E:-----------------------

Riff 2:
=====

G:---------------
D:---------------
A:-5--------3---
E:----5---3-----
00:00 / 00:00
Otros videos de esta canción
Repetir
Otros videos de esta canción
Compositor no encontrado.
24 vistas

0 comentarios

Ver todos los comentarios

¿Lograste tocar?

0 Tocaron 0 Aún no

¡Graba un video tocando Carlita y envíanoslo!

00:00 / 00:00
OK