Cifra Club

Superman

Goldfinger

Cifrado: Principal (guitarra y guitarra eléctrica)
Selo Cifra Club: esta cifra foi revisada para atender aos critérios oficiais da nossa Equipe de Qualidade.
tono: D
[Intro] D  A  Em  Bm  Em  F#m  G  A
        D  A  Em  Bm  Em  F#m  G  A

E|----------------------------------------------------|
B|------------------------5-5-5-5-5-8-7---------------|
G|---7-7-7-7-7-6-4------------------------------------|
D|------------------7---------------------------------|
A|----------------------------------------------------|
E|----------------------------------------------------|

E|----------------------------------------------------|
B|--5-5-5-5-8-7-5----8-7-5----------------------------|
G|-----------------7--------7-6-----------------------|
D|----------------------------------------------------|
A|----------------------------------------------------|
E|----------------------------------------------------|

[Primeira parte]

 D        A
So here i am
       Em           Bm
Doing everything i can
        Em           F#m
Holding on to what i am
    G                  A
Pretending i'm a superman 

D              A
I'm trying to keep
      Bm          F#m
The ground on my feet
     G
It seems the world's 
 D             A
Falling down around me

  D          A
The nights are all long
     Bm           F#m
I'm singing this song
     G              D
To try and make the answers 
           A
More than maybe

[Refrão]

    G    D       A
And i'm so confused
        F#m  C#m  Bm
About what  to   do 
   G
Sometimes i want 
      A            D  A
To throw it all away

[Segunda parte]

 D        A
So here i am 
  Em                   Bm
Growing older all the time
 Em                    F#m
Looking older all the time
         G             A
Feeling younger in my mind

[Primeira parte]

 D        A
So here i am
       Em           Bm
Doing everything i can
        Em           F#m
Holding on to what i am
    G                  A
Pretending i'm a superman 

D               A
I'm trying to sleep
Bm                    F#m
I lost count of the sheep
 G                 D
My mind is racing faster 
       A
Every minute
  D              A
What could i do more
 Bm                  F#m
Yeah i'm really not sure
G                   D
I know i'm running circles
       A
But i can't quit

[Refrão]

    G    D       A
And i'm so confused
        F#m  C#m  Bm
About what  to   do 
   G
Sometimes i want 
      A            D  
To throw it all away

[Ponte]

 Am
Controlling everything inside
Bm
I'm feeling weak
              Em
I don't feel right

You're telling me 
            Am
I have to change
         Bm          Em
Telling me to act my age
                       Am
But if all that i can do

         Bm                 Em
Is just sit and watch time go
                            Am
Then i'll have to say good bye
             Bm                Em
Life's too short to watch it fly
 F         G                            
Watch it fly                               
                                          
[Segunda parte]

 D        A
So here i am 
  Em                   Bm
Growing older all the time
 Em                    F#m
Looking older all the time
         G             A
Feeling younger in my mind

[Primeira parte]

 D        A
So here i am
       Em           Bm
Doing everything i can
        Em           F#m
Holding on to what i am
    G                  A
Pretending i'm a superman 

[Solo] D  A  Em  Bm  Em  F#m  G  A

E|----------5-------------------------------------7-5-|
B|------5-7---5--------5----3--2----------------------|
G|----7---------6-/4-7---7--4--2--------4-7-4-6/7-----|
D|-/7--------------------------------/5---------------|
A|----------------------------------------------------|
E|----------------------------------------------------|

E|---5--5---------------------------------------------|
B|-7-7--5---------------------------------------------|
G|---6--6---------------------------------------------|
D|---7--7---------------------------------------------|
A|----------------------------------------------------|
E|----------------------------------------------------|
Otros videos de esta canción
    95.382 exhibiciones
      • ½ Tono
      • A
      • Bb
      • B
      • C
      • Db
      • D
      • Eb
      • E
      • F
      • F#
      • G
      • Ab
    • Agregar a la lista

    Afinación de cifrado

    Afinador online

      OK