Cifra Club

The City With Two Faces

Goldfinger

Tab de bajo: Principal
Normal tuning

x = cut note off

Verse
A---------------------------2--2--2--2-2-2--3--2--3-
E-0--0--0--0-0-3--3--3--3-3-------------------------

Chorus
A-4--4--4--4-4--------------4--4--4--4-4------------
E--------------3--3--3--3-3--------------3-x--3-x---

"You're probably thinking..."
D----2--1--0-----------------2--1--0-----5--6--7--
A-------------4-----------------------4-----------
E-0--------------3--2--1--0-----------------------

Repeat that until he says "Joking", then play this:
E-0--0--0--0--0--0--0--0-0-3--3--3--3--3--3--3--3-3-

Repeat that until after he says "Wait a second!", play chorus.

Paul Hagen
*
*

00:00 / 00:00
Otros videos de esta canción
Repetir
Otros videos de esta canción
Composición de John Feldmann
11 exhibiciones
00:00 / 00:00
OK