Cifra Club

Blue Moon Rising

Gomez

Cifrado: Principal (guitarra y guitarra eléctrica)
Selo Cifra Club: esta cifra foi revisada para atender aos critérios oficiais da nossa Equipe de Qualidade.
tono: G
E|E|-------------------------------------------------------------------------------||
                             BLUE MOON RIB NG - Gomez
E|E|-------------------------------------------------------------------------------||
Tabbed by: 100%guitarmad

Tuning: SEE BELOW

Guitar 1 is an acoustic guitar with the low E tuned down a half-step.
Guitar 2 is tuned normally and uses fuzzy distortion. 
Guitar 3 is clean and tuned normally.


E|-----|
Intro (8 bars) 
E|-----|
No guitar.


E|-----|
Verse (12 bars) 
E|-----|
No guitar.


-E|-----|
Chorus (8 bars) 
-E|-----|
Wait two bars (1:06), then play: 
 
                                      Riff 1...           ...End Riff 1 
E|-------0-----------0-------0-----|-----0-------0-----0-------0-----|
B|-----0---------------0-------0---|-------0-------------0-------0---|
1 G|-2h4-------x-2-1h2-----2p1-----1-|-2h4-----4p2---1h2-----2p1-----1-| 
D|---------------------------------|---------------------------------|
A|---------------------------------|---------------------------------|
E|---------------------------------|---------------------------------|
     1   +   2   +   3   +   4   +     1   +   2   +   3   +   4   + 
    
E|---------------------------------|---------------------------------|
B|---------------------------------|---------------------------------|
2 G|---------------------------------|---------------------------------| 
D|---------------------------------|---------------------------------|
A|---------------------------------|---------------------------------|
E|---------------------------------|-----------------------0-5-5-5-5-|
     1   +   2   +   3   +   4   +     1   +   2   +   3   +   4   + 
  
    Riff 2...           ...End Riff 2 
E|---------------------------------|
B|---------------------------------|
2 G|---------------------------------| 
D|---------------------------------|
A|-------.-----0h5b----------------|
E|-5h7-7-7---------------0-5-5-5-5-|
     1   +   2   +   3   +   4   + 
Repeat Riff 2 on its own once, then with Riff 1 twice.


--E|-----|
Verse 2 (12 bars) 
--E|-----|
Play Riff 2 on its own twice, then with Riff 1 twice. 
Repeat this pattern once. Then play: 
(1:52) 
E|-------------------------------|
    / x2                            \ 
E|1|---------------------------------|
B|2|---------------------------------|
2 3|---------------------------------| 
E|4|-------.-------------------------|
B|5|-5h7-7-7-----5-7-8b9---5---------|
G|6|-----------------------------7\--|
     1   +   2   +   3   +   4   + 
Repeat Riff 2 twice with Riff 1. 


-E|-----|
Chorus 
-E|-----|
  1|---------------------------------|---------------------------------| 
  2|-2/4-4---4-4---4---2---2---2---2-|-0---0---0--0------5-----5p4-----| 
3 3|-2/4-4-4-4-4---4---2---2---2---2-|-1---1---1--1h2----4-----4---4\--| 
E|4|---------------------------------|-----------------------------4\--|
B|5|---------------------------------|---------------------------------|
G|6|---------------------------------|---------------------------------|
     1   +   2   +   3   +   4   +     1   +   2   +   3   +   4   + 
E|1|---------------------------------|
B|2|---------------------------------|
2 3|---------------------------------| 
E|4|---------------------------------|
B|5|-----.-----.---.---.---------5---|
G|6|-5h7-7---7-5---4---0---0-5-7-----|
     1   +   2   +   3   +   4   + 
E|1|---------------------------------|---------------------------------|
B|2|---------------------------------|---------------------------------|
G|3|---------------------------------|---------------------------------|
D|4|---------------------------------|---------------------------------|
A|5|---------------------------------|---------------------------------|
E|6|---------------------------------|---------------------------------|
     1   +   2   +   3   +   4   +     1   +   2   +   3   +   4   + 
Otros videos de esta canción
    25 exhibiciones
      • ½ Tono
      • A
      • Bb
      • B
      • C
      • Db
      • D
      • Eb
      • E
      • F
      • F#
      • G
      • Ab
    • Agregar a la lista

    Afinación de cifrado

    Afinador online

      OK