Notificações Amigos pendentes

      Good Charlotte

      Emotionless

      332 reproducciones
      Tono: C# (con acordes en la forma de B) Capo en 2ª casa
      Capo on 2nd fret
      All notes are with respect to the capo
      
      INTRO
      
      e|----------------------|
      B|-4-44-4h55------------|
      G|-4-44-4-44--4-44-4-44-|
      D|-2-22-2-22--2-22-2-22-| x4
      A|------------0-00-0-00-|
      E|----------------------|
      
      Pretty much just strum the F# and B chords back and forth.
      
      Verse
      
      e|----------------------|
      B|----------------------|
      G|-4-44-4-44--4-44-4-44-|
      D|-2-22-2-22--2-22-2-22-| x4
      A|-2-22-2-22--0-00-0-00-|
      E|----------------------|
      Try not to get messed up from the bass.  It's playing
      
      more of the melody that the singer is singing.
      (G# F# B G# F# B G# F#oct B)<--i think the might be it
      Before the chorus where he repeats "we're alright"
      just keep strumming B.
      
      CHORUS
      
      e|-----------------------------------|
      B|------------------0-00-00-00-0-000-|
      G|-4-444-44-44-444--4-44-44-44-4-444-|
      D|-2-222-22-22-222--2-22-22-22-2-222-| x4
      A|-2-222-22-22-222--0-00-00-00-0-000-|
      E|-0-000-00-00-000-------------------|
      
      
      Cadence after first chorus 
      
      e|------------0-|
      B|-----------4--|
      G|----------2---|
      D|-2-22-2--2----|
      A|-2-22-2-0-----|
      E|-0-00-0-------|
      
      
      Bridge ("And Sometiiiimmeess...)
      
      e|-------------------------------------|
      B|-------------------------------------|
      G|-------------------44444444-44444444-|
      D|-66666666/77777777-44444444-44444444-| x2
      A|-66666666/77777777-22222222-22222222-|
      E|-44444444/55555555-00000000-00000000-|
      
      
                    crescendo<
      
      e|----------------------------|
      B|----------------------------|
      G|------------------666666666-|
      D|-44444444-77777777777777777-| x1
      A|-44444444-77777777777777777-|
      E|-22222222-55555555555555555-|
      
      
      Cadence after third chorus 
      
      e|----------|
      B|----------|
      G|--------2-|
      
      
      D|-2-22-2-2-| (let B ring)
      A|-2-22-2-0-|
      E|-0-00-0---|
      
      
      OUTRO                    END ON
      
      e|----------------------|-----|
      B|-4-44-4h55------------|-----|
      G|-4-44-4-44--4-44-4-44-|-----|
      D|-2-22-2-22--2-22-2-22-|---2-|
      A|------------0-00-0-00-|--2--|
      E|----------------------|-0---|
      
        Composición: Benji Madden / Good Charlotte / Joel MaddenColaboración y revision:
        • renatobrunetti

        Comentarios 0

        140 .
        140 cancelar

        ¿conseguiste tocar?

        covers

        ¡Grave un vídeo tocando Emotionless y envie para nosotros!

        Ex.: http://www.youtube.com/watch?v=0IvSvIwGdwk
        ver cover de otras canciones »
        0:00 / 0:00

        Capitulos

          3 versões de guitarra dificuldad reproducciones contribuición y correción
          3 versões de guitarra eléctrica dificuldad reproducciones contribuición y correción
          3 versões de cavaco dificuldad reproducciones contribuición y correción
          3 versões de teclado dificuldad reproducciones contribuición y correción
          1 versão de contrabajo reproducciones contribuición y correción
          play/pausefechar subir/bajar velocidad
          6ª cuerda E5ª cuerda A4ª cuerda D3ª cuerda G2ª cuerda B1ª cuerda E
            acordes
            publicidad
            cerrar
            ok