Notificações Amigos pendentes

      Good Charlotte

      S.O.S.

      347 reproducciones
      Tono: E
      Key:
      .  = Palm Mute
      -> = Continued
      x  = Don't play string (Mute)
      ~  = Let ring for a short time
      ~~ = Let ring for a long time
      *t)= Tremolo Picking 
      
      
      Intro (Acoustic (0:00)
      
      e|-00-000--00-000--00-000-00-000-|
      B|-00-000--00-000--00-000-00-000-|
      G|-xx-xxx--11-111--44-444-44-444-|
      D|-66-666--22-222--44-444-44-444-|
      A|-66-666--22-222--22-222-22-222-|
      E|-44-444--00-000--xx-xxx-xx-xxx-| x4
      
      
      Verse (0:24)
      
      e|---------------------------------------------------------------------|
      B|---------------------------------------------------------------------|
      G|---------------------------------------------------------------------|
      D|-2-22-22-2-22-22--4-44-44-4-44-44--6-66-66-6-66-66--9-99-99--9-99-99-|
      A|-2-22-22-2-22-22--4-44-44-4-44-44--6-66-66-6-66-66--9-99-99--9-99-99-|
      E|-0-00-00-0-00-00--2-22-22-2-22-22--4-44-44-4-44-44--7-77-77--6-66-66-| x2
      
        . .. .. . .. ..  . .. .. . .. ..  . .. .. . .. ..  . .. ..  . .. ..
      
      Pre-Chorus (0:45)
      
      e|---------------------------------------------|
      B|---------------------------------------------|
      G|---------------------------------------------|
      D|-2-22-22-2-22-22--6~~--6~~--9-99-99--9-99-99-|
      A|-2-22-22-2-22-22--6~~--6~~--9-99-99--9-99-99-|
      E|-0-00-00-0-00-00--3~~--4~~--7-77-77--6-66-66-| x1
      
        . .. .. . .. ..
      
      Chorus (0:57)
      
      e|---------------------|
      B|---------------------|
      G|-----------4444-4444-|
      D|-6666-2222-4444-4444-|
      A|-6666-2222-2222-2222-|
      E|-4444-0000-----------| x4
      
      
      Verse x2 (1:18)
      Pre-chorus (1:40)
      Chorus x4 (1:51)
      
      Let ring (2:13)
      e|-----|
      B|-----|
      G|-----|
      D|-2~~-|
      A|-2~~-|
      E|-0~~-|
      
      
      
      
      
      
      Interlude (2:17)
      
      e|---------------------------------------------------------------------
      B|---------------------------------------------------------------------
      G|---------------------------------------------------------------------
      D|-666-666-666-666-444-444-222-222-666-666-666-666-444-444-222-222-666-
      A|-666-666-666-666-444-444-222-222-666-666-666-666-444-444-222-222-666-
      E|-333-333-444-444-222-222-000-000-333-333-444-444-222-222-000-000-333-
      
      
      --------------------|
      333-444-444-777-777-|
      --------------------|
      666-222-222-999-999-|
      666-222-222-999-999-|
      --------------------|
      
      
      
      
      Solo (2:47)
      (Chorus played by Gt.2)
      
      e|------------------------------------------------------------->
      B|---------------------7-5--------------------------7-5-4-5-4~->
      G|---88-8-----8-6---44-----8-6-----88-8-----8-6--44------------>
      D|-99-----9-9-----------------9-6-------9-9-------------------->
      A|------------------------------------------------------------->
      E|------------------------------------------------------------->
      
      
      Solo Cont... (2:58)
      
      e|-----------------------------2-----77-7-6-4-----77-7-6-6-->
      B|-7p5p0-7p5p0-4p2p0-4p2p0-------444----------7-7----------->
      G|-------------------------3h4------------------------------>
      D|---------------------------------------------------------->
      A|---------------------------------------------------------->
      E|---------------------------------------------------------->
      
      
      Solo continuação
      
      e|-{9999}--{7777}--7-6-4------------|
      B|-----------------------7-4h5-7~~--|
      G|----------------------------------|
      D|----------------------------------|
      A|----------------------------------|
      E|----------------------------------|
      
      
      Acoustic Ending x4 (Same as Intro) (3:09)
        Composición: Benji Madden / Joel MaddenColaboración y revision:
        • cepacoool

        Comentarios 0

        140 .
        140 cancelar

        ¿conseguiste tocar?

        covers

        ¡Grave un vídeo tocando S.O.S. y envie para nosotros!

        Ex.: http://www.youtube.com/watch?v=0IvSvIwGdwk
        ver cover de otras canciones »
        0:00 / 0:00

        Capitulos

          2 versões de guitarra dificuldad reproducciones contribuición y correción
          2 versões de guitarra eléctrica dificuldad reproducciones contribuición y correción
          2 versões de cavaco dificuldad reproducciones contribuición y correción
          2 versões de teclado dificuldad reproducciones contribuición y correción
          1 versão de Guitar Proformatodownloadscontribuición
          play/pausefechar subir/bajar velocidad
          6ª cuerda E5ª cuerda A4ª cuerda D3ª cuerda G2ª cuerda B1ª cuerda E
            acordes
            publicidad
            cerrar
            ok