Cifra Club

12D3

Gorillaz

Cifrado: Principal (guitarra y guitarra eléctrica)
Quer fazer aulas de música com a gente? Responda essas perguntas
e nos ajude nesse projeto! →
tono: D
         D4/F#
E|-------3-------------------------------| --\
B|-------3-------------------------------|    \
G|---2-2-2-------------------------------|     \ Esse Riff é tocado durante toda a música
D|---0-0-0---0-2-0-3-0-------------------|     /
A|---0-0-0-------------------------------|    /
E|---2-2-2-------------------------------| --/

E|--9-9-9-9-7-7-9-----9-9-9-9-7-7-9-----9-9-9-9-7-7-9-|
B|----------------------------------------------------|
G|----------------------------------------------------|
D|----------------------------------------------------|
A|----------------------------------------------------|
E|----------------------------------------------------|

E|--9-9-7-6-4-2-0-2/4-----------------------------|
B|------------------------------------------------|
G|------------------------------------------------|
D|------------------------------------------------|
A|------------------------------------------------|
E|------------------------------------------------|
Composición de Gorillaz
Colaboración y revisión:
  • Felipe Lopes
  • Guilherme Prado
448 vistas
    • ½ Tono
    • A
    • Bb
    • B
    • C
    • Db
    • D
    • Eb
    • E
    • F
    • F#
    • G
    • Ab
  • Agregar a la lista

    0 comentarios

    Ver todos los comentarios

    ¿Lograste tocar?

    7 Tocaron 0 Aún no

    ¡Graba un video tocando 12D3 y envíanoslo!

    00:00 / 00:00
    Outros vídeos desta música
    Repetir Calidad Automático
    Outros vídeos desta música
    00:00 / 00:00
    Automático
    OK