Cifra Club

El Manana

Gorillaz

Cifrado: Principal (guitarra y guitarra eléctrica)
Já pensou em usar uma coleção de roupas do Cifra Club? Responda as perguntas abaixo e nos ajude nessa missão! →
tono: E
All the tabs for this were messed up, so I took a shot.
pre chorus is a little eh

Intro
(guitar 1)
|-12-0---10-0---8-0---7-0----|
|----------------------------|
|----------------------------|
|----------------------------|
|----------------------------|
|----------------------------|

(guitar 2)
|----------------------------|
|------10-----8-----6-----5--|
|---7------7-----7-----7-----|
|--7-7----7-7---7-7---7-7----|
|----------------------------|
|----------------------------|

(guitar 3)
|----------------------------|
|----------------------------|
|-9-7-5-5-2-5-7-9-14-9-7-5-2-|
|----------------------------|
|----------------------------|
|----------------------------|

Verse
  Am             G
|----------------3-3-3-3-----|
|-1-1-1-1--------------------|
|-2-2-2-2--------------------|
|-2-2-2-2--------------------|
|----------------2-2-2-2-----|
|----------------3-3-3-3-----|

  F              Em
|-1-1-1-1--------------------|
|-1-1-1-1--------------------|
|-2-2-2-2--------------------|
|-3-3-3-3--------2-2-2-2-----|
|-3-3-3-3--------2-2-2-2-----|
|-1-1-1-1--------------------|

Pre-chorus
  Am               Dm               Bm
|------------------1111111111111111-22222222222222222-|
|-1111111111111111-3333333333333333-33333333333333333-|
|-2222222222222222-2222222222222222-44444444444444444-|
|-2222222222222222------------------44444444444444444-|
|-----------------------------------22222222222222222-|
|-----------------------------------------------------|

Chorus
   Am             G
|----------------3-3-3-3-----|
|-1-1-1-1--------------------|
|-2-2-2-2--------------------|
|-2-2-2-2--------------------|
|----------------2-2-2-2-----|
|----------------3-3-3-3-----|

  F              Em
|-1-1-1-1--------------------|
|-1-1-1-1--------------------|
|-2-2-2-2--------------------|
|-3-3-3-3--------2-2-2-2-----|
|-3-3-3-3--------2-2-2-2-----|
|-1-1-1-1--------------------| 

Cello bridge
|--------------------------------------------------------------------------|
|--------------------------------------------------------------------------|
|--------------------------------------------------------------------------|
|------------------------------------------------------------------- - x10-|
|---0-7-0-7-3-10pm-10-10-2--8-4-8-9-7-5-3-1~-0-----------------------------|
|--------------------------5----------------3------------------------------|
Composición de Gorillaz
648 vistas
    • ½ Tono
    • A
    • Bb
    • B
    • C
    • Db
    • D
    • Eb
    • E
    • F
    • F#
    • G
    • Ab
  • Agregar a la lista

    0 comentarios

    Ver todos los comentarios

    ¿Lograste tocar?

    1 Tocaron 0 Aún no

    ¡Graba un video tocando El Manana y envíanoslo!

    00:00 / 00:00
    Outros vídeos desta música
    Repetir Calidad Automático
    Outros vídeos desta música
    00:00 / 00:00
    Automático
    OK