Cifra Club

Every Planet We Reach Is Dead

Gorillaz

Cifrado: Principal (guitarra y guitarra eléctrica)
Já pensou em usar uma coleção de roupas do Cifra Club? Responda as perguntas abaixo e nos ajude nessa missão! →
tono: C
Email:  *
Tuning: Normal

Intro

E-------------------------------------------------|
B-3/5-5-0-3-5-0-3-5-------3/5-5-0-3-5-0-3-5-------|
G-------------------2-0------------------2-0------|
D-------------------------------------------------| x2
A-------------------------------------------------|
E-------------------------------------------------|

It gets slow at this point

Intro outro

E--------------------------------------|
B--------------------------------------|
G--------------------------------------|
D-2b-2-2-------------------------------|
A--------3-----------------------------|
E--------------------------------------|

Verse

E --------------------------------------------------|
B---------------------------------------------------|
G---------------------------------------------------|
D---------------------------------------------------|
A-7----7----5----3---3----2-------------------------|
E --------------------------------------------------|

Outro of verse

Play intro 3 times then on the 4th play this

E|-------------------3--------------------------------------------------------|
B|-5-5-5-5-5-5-5----5-3-------------------------------------------------------|
G|---------------------------2-0----------------------------------------------|
D|----------------------------------------------------------------------------|
A|----------------------------------------------------------------------------|
E|----------------------------------------------------------------------------|

That is as much of the song I could tab, since the rest is a played by violins

Good song I made it as accurate as possible
Composición de Gorillaz
517 vistas
    • ½ Tono
    • A
    • Bb
    • B
    • C
    • Db
    • D
    • Eb
    • E
    • F
    • F#
    • G
    • Ab
  • Agregar a la lista

    0 comentarios

    Ver todos los comentarios

    ¿Lograste tocar?

    0 Tocaron 0 Aún no

    ¡Graba un video tocando Every Planet We Reach Is Dead y envíanoslo!

    00:00 / 00:00
    Outros vídeos desta música
    Repetir Calidad Automático
    Outros vídeos desta música
    00:00 / 00:00
    Automático
    OK