Cifra Club

Feel Good Inc.

Gorillaz

Tablatura: Principal
reproducciones 20.906
Tono: F#
Afinação|: C A D G B E (Drop-C)

Riff Baixo:
G|---------------------------------------------------------------------------|
D|---------------------------------------------------------------------------|
A|---------2-1---------------------------------------------------------------|
C|-3-3-5-6-----8-8-11-10-6-3----/15------------------------------------------|

Riff Guitarra:
E|-11----11------------------------------------------------------------------|
B|----11----11---14---14----12----12-----------------------------------------|
G|------------------13---13----13-----8-/10\8--/-----------------------------|
D|---------------------------------------------------------------------------|
A|---------------------------------------------------------------------------|
C|---------------------------------------------------------------------------|

Riff Baixo 2:
G|---------------------------------------------------------------------------|
D|---------------------------------------------------------------------------|
A|---------------------------------------------------------------------------|
C|--15-13-10-6-3-X-X---------------------------------------------------------|

Intro 4x: (Riff Baixo / Riff Guitarra)

(Riff Baixo / Riff Guitarra - 4x)
City's breaking down on a camel's back.
They just have to go cos they don't know wack
So all you fill the streets it's appealing to see
You won't get out the county, 'cos you're bad and free
You've got a new horizon It's ephemeral style.
A melancholy town where we never smile.
And all I wanna hear is the message beep.
My dreams, they've got to kiss, because I don't get sleep, no..

(Riff Baixo 2)

D#m                A#m
Windmill, Windmill for the land.
G#m                   D#m
Acordes para:
    Compositor: David Jolicouer / GorillazColaboración y revision:

    0 comentarios

      mostrar más comentarios

      ¿Conseguiste tocar?

      31tocaron0aún no

      ¡Graba un vídeo tocando Feel Good Inc. y envianoslo!

      00:00 / 00:00
      outros vídeos desta música
      repetirqualidadeautomática
      Outro vídeos desta música
        00:00 / 00:00
        automática
        OK