Cifra Club

Feel Good Inc.

Gorillaz

Cifrado: Principal (guitarra y guitarra eléctrica)
Já pensou em usar uma coleção de roupas do Cifra Club? Responda as perguntas abaixo e nos ajude nessa missão! →
tono: F#
Riff Baixo:
G|---------------------------------------------------------------------------|
D|---------------------------------------------------------------------------|
A|---------3-2---------------------------------------------------------------|
E|-0-0-2-3-----5-5-8-7-3-0----/12------------------------------------------|

Riff Guitarra:
E|-11----11------------------------------------------------------------------|
B|----11----11---14---14----12----12-----------------------------------------|
G|------------------13---13----13-----8-/10\8--/-----------------------------|
D|---------------------------------------------------------------------------|
A|---------------------------------------------------------------------------|
E|---------------------------------------------------------------------------|

Riff Baixo 2:
G|---------------------------------------------------------------------------|
D|---------------------------------------------------------------------------|
A|---------------------------------------------------------------------------|
E|--12-10-7-3-0-X-X---------------------------------------------------------|

Intro 4x: (Riff Baixo / Riff Guitarra)

(Riff Baixo / Riff Guitarra - 4x)
City's breaking down on a camel's back.
They just have to go cos they don't know wack
So all you fill the streets it's appealing to see
You won't get out the county, 'cos you're bad and free
You've got a new horizon It's ephemeral style.
A melancholy town where we never smile.
And all I wanna hear is the message beep.
My dreams, they've got to kiss, because I don't get sleep, no..

(Riff Baixo 2)

D#m                A#m
Windmill, Windmill for the land.
G#m                   A#m
Turn forever hand in hand
D#m                A#m
Take it all in on your stride
G#m                   A#m
It is ticking, falling down
D#m                A#m
Love forever, love has freely
G#m                   A#m
Turned forever you and me
D#m                A#m
Windmill, windmill for the land
G#m           A#m
Is everybody in?
Composición de David Jolicouer / Gorillaz
36.211 vistas
    • ½ Tono
    • A
    • Bb
    • B
    • C
    • Db
    • D
    • Eb
    • E
    • F
    • F#
    • G
    • Ab
  • Agregar a la lista

    0 comentarios

    Ver todos los comentarios

    ¿Lograste tocar?

    58 Tocaron 12 Aún no

    ¡Graba un video tocando Feel Good Inc. y envíanoslo!

    00:00 / 00:00
    Outros vídeos desta música
    Repetir Calidad Automático
    Outros vídeos desta música
    00:00 / 00:00
    Automático
    OK