Cifra Club

Fire Coming Out Of A Monkey's Head

Gorillaz

Cifrado: Principal (guitarra y guitarra eléctrica)
Já pensou em usar uma coleção de roupas do Cifra Club? Responda as perguntas abaixo e nos ajude nessa missão! →
tono: C
[Intro] Am

[Primeira Parte]
Am
Once upon a time at the foot 
Of a great mountain
There was a town where the 
People known as happy folk lived
Their very existence a mystery 
To the rest of the world
Obscured, as it was, by great clouds
Here they played out their peaceful lives
Innocent of the litany of excessive violence 
That was growing in the world below
To live in harmony with the spirit of 
The mountain called Monkey was enough

[Segunda Parte] 
     Am      E7
Then one day
   F7M     
Strange folk 
       E7           
Arrived in the town
      FM7         E7        
They came in camouflage 
 A
Hidden behind dark glasses
But no one noticed them
Am                E7
  They only saw shadows 
     C                 E77
You see, without the truth 
       F7M
To the eyes
     F7M        
The happy folk 
       Am
Were blind

Did you call me out?
       Am           E7          Am           E7        etc....
E|E|----------------------------------------------|--------|
B|------1------------0------------1-------------0-------|
E7|------2---2---------0---0---------2---2--------0---0--|
D|----2---2---------0---0---------2---2--------0---0----|
A|--0--------------------------0------------------------|
E|---------------03-----------3-------------03----------|

Falling out of Aeroplanes and Hiding out in holes..

       Am           E          F           E
E|E|----------------------------------------------|--------|
B|------1------------0------------1------------0--------|
E7|------2---2--------1---1--------2---2--------1---1----|
D|----2---2--------2---2--------3---3--------2---2------|
A|--0| E|----------------------------------------------|-----|
E|--------------0------------1------------0-------------|

oh little town soon you'll see the time has come to see..

       F            E         A7                     etc....
E|E|----------------------------------------------|--------|
B|------1------------0------------2------2-------2------|
E7|------2---2--------1---1------------0-----0-----0-----|
D|----3---3--------2---2--------2---2-----2-------------|
A|---------------------------0--------------------------|
E|-1------------0----------0----------------------------|

theres nothing you believe you waaant..

E|----------------------------------------------|----------|
Am             Em7              Am             Em7
Falling out of aeroplanes and hiding out in holes
Am                Em7             Am             Em7
waiting for the sunset to come people going home
Am            Em7               Am                 Em7
Jump out from behind them and shoot them in the head
       Am       Em7           Am            Em7
Now everyone is dancing the dance of the dead
      Am           Em7
The dance of the dead
      Am                 Em7  
The daaaaaaaance of the dead

( Am  G6  Am  G6  Am  G6 )

     Am         E                   F               E
Oh little town soon you'll see the time has come to see
        F           E           A7
Theres nothing you believe you want
     F          E
But where were you,
Am                 E7        F
When it all, came down, on me
E                    Am
Did you call me out
Composición de Gorillaz
Colaboración y revisión:
  • Gabriel Silva
202 vistas
    • ½ Tono
    • A
    • Bb
    • B
    • C
    • Db
    • D
    • Eb
    • E
    • F
    • F#
    • G
    • Ab
  • Agregar a la lista

    0 comentarios

    Ver todos los comentarios

    ¿Lograste tocar?

    1 Tocaron 0 Aún no

    ¡Graba un video tocando Fire Coming Out Of A Monkey's Head y envíanoslo!

    00:00 / 00:00
    Outros vídeos desta música
    Repetir Calidad Automático
    Outros vídeos desta música
    00:00 / 00:00
    Automático
    OK