Cifra Club

Hong Kong

Gorillaz

Cifrado: Principal (guitarra y guitarra eléctrica)
Já pensou em usar uma coleção de roupas do Cifra Club? Responda as perguntas abaixo e nos ajude nessa missão! →
tono: D
Riffs :

Riff 1 :
E|-----------------------------------------
A|---2-------------------------------------
D|-----------------------------------------
G|-----------------------------------------
B|--------3--------------------------------
e|------3--3-------------------------------

Riff 2 :
E|----------------------------------------
A|---0------------------------------------
D|----------------------------------------
G|----------------------------------------
B|-------2--------------------------------
e|-----2--2-------------------------------

Riff 3 :
E|----------------------------------------
A|----4-----------------------------------
D|----------------------------------------
G|----------------------------------------
B|--------5-------------------------------
e|------5--5------------------------------

Riff 4 :
E|----3-----------------------------------
A|----------------------------------------
D|----------------------------------------
G|----------------------------------------
B|--------3-------------------------------
e|------3--3------------------------------

Riff 5 :
E|----------------------------------------
A|----3-----------------------------------
D|----------------------------------------
G|----------------------------------------
B|--------3-------------------------------
e|------3--3------------------------------

Sequencia:

A música se resume em 3 sequencias:

Sequancia 1 : Riff 1 - Riff 2 (Intro, final e as partes vzias que separam as partes da música)

Sequancia 2 : Riff 1 - riff 2 - riff 3 / riff 5 - riff 1 - riff 4 - riff 2 - riff 1 - riff 2 (Esse riff é o da primeira e da terceira parte da música, porém na primeira ele é tocado duas vezes)

Sequancia 3 : riff 5 - riff 1 - riff 3 - riff 5 - riff 5 - riff 1 - riff 3- riff 5 - riff 1 - riff 2 ( Esse riff é tocado na segunda e na quarta parte da música)

Lembrando que o riff e tocado em quatro tempos, ou seja, em cada vez é tocado quatro vezes essa sequanssiazinha, quatro vezes o baixo e as outras notas

/ = divide o tempo

Parte I

Lord, hear me now
Junk boats and English boys
Crashing out into the noise
Electric fences and guards
You swallow me
I'm just a pill on your tongue
Up here on the nineteenth floor
The neon lights make me numb

Parte II

And late in a star's life
It begins to explode
And all the people in a dream
Wait for the machine
Pick the shit up leave it clean

Parte III

Kid hang over here
What you learning in school?
Is the rise of an eastern sun
Gonna be alright for everyone?

Parte IV

The radio station disappeared
Music turned into thin air
The DJ was the last to leave
She had well conditioned hair
Was beautiful but nothing really was there
Composición de Gorillaz
Colaboración y revisión:
  • Filipe Silva
685 vistas
    • ½ Tono
    • A
    • Bb
    • B
    • C
    • Db
    • D
    • Eb
    • E
    • F
    • F#
    • G
    • Ab
  • Agregar a la lista

    0 comentarios

    Ver todos los comentarios

    ¿Lograste tocar?

    0 Tocaron 0 Aún no

    ¡Graba un video tocando Hong Kong y envíanoslo!

    00:00 / 00:00
    Outros vídeos desta música
    Repetir Calidad Automático
    Outros vídeos desta música
    00:00 / 00:00
    Automático
    OK