Cifra Club

O Green World

Gorillaz

Tab de bajo: Versão 2
Quer fazer aulas de música com a gente? Responda essas perguntas
e nos ajude nesse projeto! →
here´s the tab:P gogo


 -----------------------------------------------------|
 -----------------------------------------------------|
 -------------------------5-5-5-5---------------------|
 -----5-1-4-1-3-1-3-1---5--5-5-5----------------------|


 Middle part
G|--------------------------|
D|--------------------------|
A|--------------------------|
E|-5-8-10-12-12/3-----------|

Keyboard bit
G|-------------------------|  Repeat
D|-5-5-5-3--5-5-5-3--------|
A|-------------------------|
E|-------------------------|

G|--------------------------|
D|--------------------------|
A|-0-0-0-3-5----------------|
E|--------------------------|
Composición de Gorillaz
4 vistas

0 comentarios

Ver todos los comentarios

¿Lograste tocar?

0 Tocaron 0 Aún no

¡Graba un video tocando O Green World y envíanoslo!

00:00 / 00:00
Outros vídeos desta música
Repetir Calidad Automático
Outros vídeos desta música
00:00 / 00:00
Automático
OK