Cifra Club

Punk

Gorillaz

Cifrado: Principal (guitarra y guitarra eléctrica)
Já pensou em usar uma coleção de roupas do Cifra Club? Responda as perguntas abaixo e nos ajude nessa missão! →
tono: Db
intro: some effects and special stuff

verse
-|---------------|-
-|---------------|-
-|--6-6-6-----6--|-
-|--6-6-6-6-6-6--|-
-|--4-4-4-6-6-4--|-
-|--------4-4----|-

chorus
-|--------------------------------|-
-|--------------------------------|-
-|---------6---------------6------|-
-|-6-6-6-6-6--6-6--6-6-6-6-6--6-6-|-
-|-6-6-6-6-4--4-4--6-6-6-6-4--4-4-|-
-|-4-4-4-4---------4-4-4-4--------|-

effects in other verse during the breaks

-|--------------|-
-|--------------|-
-|---7------4---|-
-|--------------|-
-|--------------|-
-|--------------|-

-|---------------|-
-|---------------|-
-|---------------|-
-|--6-6-6-6--6--|-
-|--4-4-4-4--4--|-
-|---------------|-

               -|---------------|-
               -|---------------|-
               -|---------------|-
               -|--6-6-6-6------|-
               -|--4-4-4-4--1---|-
               -|---------------|-
include feedback            -

ending
-|----------------|-
-|----------------|-
-|--6-6-6-----6--|-
-|--6-6-6-6-6-6--|-
-|--4-4-4-6-6-4--|-
-|--------4-4-4--|-
Composición de Gorillaz
420 vistas
    • ½ Tono
    • A
    • Bb
    • B
    • C
    • Db
    • D
    • Eb
    • E
    • F
    • F#
    • G
    • Ab
  • Agregar a la lista

    0 comentarios

    Ver todos los comentarios

    ¿Lograste tocar?

    0 Tocaron 0 Aún no

    ¡Graba un video tocando Punk y envíanoslo!

    00:00 / 00:00
    Outros vídeos desta música
    Repetir Calidad Automático
    Outros vídeos desta música
    00:00 / 00:00
    Automático
    OK