Cifra Club

Rock The House

Gorillaz

Cifrado: Principal (guitarra y guitarra eléctrica)
Já pensou em usar uma coleção de roupas do Cifra Club? Responda as perguntas abaixo e nos ajude nessa missão! →
tono: D
Tuning: Standard

There isn't a guitar in this song but it's same notes that the trumpet
intro plays.


|-10--9--5--------5--7------7--10--9--12-9---10--------7-|
|-----------5---8-------5-8------------------------5-8---|
|--------------------------------------------------------|
|--------------------------------------------------------|
|--------------------------------------------------------|
|--------------------------------------------------------|


After thats ^ repeated for awile it stops and then plays something like
this.
|-14-14-15-----------------14-15----------|
|--x--x--x------------------x--x----------|
|-12-12-13-----------------12-13----------|
|-----------------------------------------|
|-----------------------------------------|
|-----------------------------------------|

This is repeated through the whole song.
Composición de Dan the Automator / Del the Funky Homosapien / Gorillaz
1.010 vistas
    • ½ Tono
    • A
    • Bb
    • B
    • C
    • Db
    • D
    • Eb
    • E
    • F
    • F#
    • G
    • Ab
  • Agregar a la lista

    0 comentarios

    Ver todos los comentarios

    ¿Lograste tocar?

    0 Tocaron 1 Aún no

    ¡Graba un video tocando Rock The House y envíanoslo!

    00:00 / 00:00
    Outros vídeos desta música
    Repetir Calidad Automático
    Outros vídeos desta música
    00:00 / 00:00
    Automático
    OK