Cifra Club

Rock The House

Gorillaz

Tab de bajo: Principal
Já pensou em usar uma coleção de roupas do Cifra Club? Responda as perguntas abaixo e nos ajude nessa missão! →
Tabbed By: Masterbasser36


Chorus
G|-----------------------------------------------|
D|-----------------------------------------------|
A|------------0--3-5-3--0----------2/6--0--5-7---|
E|-3-2--0-3-2-------------0-4-0-3----------------|

Verse
G|----------------------------|
D|----------------------------|
A|---2-4--4444----2-4--4343---|
E|-0------------0-------------|


Comment If You Find Any Mistakes Or Have Any Questions.
And Please Rate.
Composición de Dan the Automator / Del the Funky Homosapien / Gorillaz
71 vistas

0 comentarios

Ver todos los comentarios

¿Lograste tocar?

0 Tocaron 0 Aún no

¡Graba un video tocando Rock The House y envíanoslo!

00:00 / 00:00
Outros vídeos desta música
Repetir Calidad Automático
Outros vídeos desta música
00:00 / 00:00
Automático
OK