Cifra Club

Tomorrow Comes Today

Gorillaz

Tab de bajo: Principal
Quer fazer aulas de música com a gente? Responda essas perguntas
e nos ajude nesse projeto! →
Tabbed By : Sandman.
Tuning:standard

This is ideally for a 5 string, but you can transpose it and play on higher strings if 
only have a four string. Not the easiest bass line but it'll have to do.

verse
G|---------------------------|
D|---------------------------|
A|---------------------------|
E|----0-2-7--------4---------|
B|-----------0-0-2-----------|


G|--------------------------|
D|--------------------------|
A|--------------------------|
E|---4-7-4-7-4-7-9-9-9-9----|
B|--------------------------|

chorus
G|-------------------------------------------------------|
D|-------------------------------------------------------|
A|-------------------------------------------------------|
E|--4-7-4-7-4-7-9-4---4-7-4-7-4-7-9-4--0-2-0-2-0-2-4-0---|
B|-------------------------------------------------------|

G|----------------------|
D|----------------------|
A|----------------------|
E|---0-2-0-2-0-2-0------|
B|-----------------2----|
Composición de Gorillaz
278 vistas

0 comentarios

Ver todos los comentarios

¿Lograste tocar?

0 Tocaron 0 Aún no

¡Graba un video tocando Tomorrow Comes Today y envíanoslo!

00:00 / 00:00
Outros vídeos desta música
Repetir Calidad Automático
Outros vídeos desta música
00:00 / 00:00
Automático
OK