Cifra Club

1.000 Hours

Green Day

Tablatura: Principal (guitarra)
Tom: A
Afinar meio-tom abaixo

Intro/Verse
e|---------------------------------------------------------------------------|
B|---------------------------------------------------------------------------|
G|---------------------------------------------------------------------------|
D|-7-7-7-7-7-7-7-7-----------------------------------------------------------|
A|-7-7-7-7-7-7-7-7-----------------------------------------------------------|
E|-5-5-5-5-5-5-5-5-----------------------------------------------------------|
Chorus
e|---------------------------------------------------------------------------|
B|---------------------------------------------------------------------------|
G|---------------------------------------------------------------------------|
D|-5-5-5-5-5-6-6-6-6-6----x3-------------------------------------------------|
A|-5-5-5-5-5-6-6-6-6-6-------------------------------------------------------|
E|-3-3-3-3-3-4-4-4-4-4-------------------------------------------------------|
Solo
e|-10-10-9-9-10-7-5-5-5-3-3-3-2-2-2-0----------------------------------------|
B|------------------------------------5-5-7-7-8-8-10-10-12-12-14-14-15-15-14-|
G|---------------------------------------------------------------------------|
c|---------------------------------------------------------------------------|
A|---------------------------------------------------------------------------|
E|---------------------------------------------------------------------------|

e|-10-9-10-9-7-9-10-9-10-9-7-9-10-9-10-9-7-5-3-3-3-2-0-|
B|-----------------------------------------------------|
G|-----------------------------------------------------|
C|-----------------------------------------------------|
A|-----------------------------------------------------|
E|-----------------------------------------------------|

aqui está a letra completa!!!!!!!!!!!!


Starlit night 
The moon shing bright 
You are the one I heed 
Up at your window 
I see a shadow 
Silhouette of your grace 
Here's this flower 
I picked for all the hours 
That you've spent with me 
The one I love 
That I've been dreaming of 
Sailing across the sea 
Let my hands flow through 
You hair. Moving closer 
A kiss we'll share 
Passionate love to be all night long 
We'll never break, as one too strong 
Npthing's more 
That what our love is for 
As I kiss your cheek 
Oh so softly 
Hands flowing down my back 
1,000 hours, I'll never leave 
Our romance 
Is a love trance 
And now we'll never part 
1,000 hours 
Of such a love shower 
We'll never stop, once we start
reproducciones 857
Acordes para:
    Composição: Billie Joe Armstrong / Green Day Colaboración y revision:
    • Eduardo L.
    • Luis Etges
    • Rodolpho Fernando

    0 comentarios

    mostrar más comentarios

    ¿Conseguiste tocar?

    0 tocaron 0 aún no

    ¡Graba un vídeo tocando 1.000 Hours y envianoslo!

    00:00 / 00:00
    outros vídeos desta música
    repetir qualidade Automático
    Outros vídeos desta música
    00:00 / 00:00
    Automático
    OK