Cifra Club

Aprenda

American Idiot

Green Day

Tablatura: Principal (guitarra)
Tom: Ab (con acordes en la forma de A) Afinação: Eb Ab Db Gb Bb Eb
Intro 2x: A5  D5  G5  D5  A5  G5
          A5  D5  G5  D5  A5

Primeira Parte:
                                A5  D5  G5  D5  A5  G5
Don't wanna be an American idiot
                                       A5  D5  G5  D5  A5
Don't want a nation under the new midia
                                       A5  D5  G5  D5  A5  G5
And can you hear the sound of hysteria?
                                 A5  D5  G5  D5  A5
The subliminal mind, fuck America

Refrão:
D5
 Welcome to a new kind of tension
A5                       E5
 All across the alienation
                                    A5
Where everything isn't meant to be ok
D5
 Television dreams of tomorrow
A5                                E5
 We're not the ones meant to follow

For that's enough to argue

(Intro 1x)

                                  A5  D5  G5  D5  A5  G5
Well maybe I am the faggot America
                                  A5  D5  G5  D5  A5
I'm not a part of a redneck agenda
                                A5  D5  G5  D5  A5  G5
Now everybody do the propaganda!
                                     A5  D5  G5  D5  A5
And sing along in the age of paranoia

Refrão:
D5
 Welcome to a new kind of tension
A5                       E5
 All across the alienation
                                    A5
Where everything isn't meant to be ok
D5
 Television dreams of tomorrow
A5                                E5
 We're not the ones meant to follow

For that's enough to argue

Solo: D5  A5  E5  A5
      D5  A5  E5
E|---------------------------------------------------
B|---------------------------------------------------
G|-9/11--11-11-11-11-11-11--11--11-9--7--------------
D|---------------------------------------------------
A|-7/9---9--9--9--9--9--9---9---9--7--5--------------
E|---------------------------------------------------

E|---------------------------------------------------
B|---------------------------------------------------
G|-7/9--9-9-9-9-9-9/11--9--7--6----------------------
D|---------------------------------------------------
A|-5/7--7-7-7-7-7-7/9---7--5--4----------------------
E|---------------------------------------------------

E|---------------------------------------------------
B|---------------------------------------------------
G|-4--4-4-4-4-6-7--6--4-4-4/9------------------------
D|---------------------------------------------------
A|---------------------------------------------------
E|---------------------------------------------------

E|-------------------9-------------------------------
B|-----10-----12-----------12---10~~-----------------
G|-9-9----9-9----9-9---9-9----9----------------------
D|---------------------------------------------------
A|---------------------------------------------------
E|---------------------------------------------------

E|---------------------------------------------------
B|---------------------------------------------------
G|-9/11--11-11-11-11-11-11--11--11-9--7--------------
D|---------------------------------------------------
A|-7/9---9--9--9--9--9--9---9---9--7--5--------------
E|---------------------------------------------------

E|---------------------------------------------------
B|---------------------------------------------------
G|-7/9--9-9-9-9-9-9/11--9--7--6----------------------
D|---------------------------------------------------
A|-5/7--7-7-7-7-7-7/9---7--5--4----------------------
E|---------------------------------------------------

E|---------------------------------------------------
B|---------------------------------------------------
G|-4--4-4-4-4-6-7--6--4-4-4/9------------------------
D|---------------------------------------------------
A|---------------------------------------------------
E|---------------------------------------------------

E|---------------------------------------------------
B|-10------------------------------------------------
G|---------------------------------------------------
D|---------------------------------------------------
A|---------------------------------------------------
E|---------------------------------------------------

(Intro 2x)
Don't want to be an American idiot
One nation controlled by the media
Information age of hysteria
Is callin' out the idiot America

Refrão:
D5
 Welcome to a new kind of tension
A5                       E5
 All across the alienation
                                    A5
Where everything isn't meant to be ok
D5
 Television dreams of tomorrow
A5                                E5
 We're not the ones meant to follow
                          ( A5  D5  G5  D5  A5  G5 )
For that's enough to argue

Final 2x: A5  D5  G5  D5  A5  G5
          A5  D5  G5  D5  A5
Compositor Billie Joe Armstrong / Green Day 31.378 reproducciones
    • ½ Tom
    • A
    • Bb
    • B
    • C
    • Db
    • D
    • Eb
    • E
    • F
    • F#
    • G
    • Ab
  • Adicionar à lista

    0 comentarios

    Mostrar mais comentários
    00:00 / 00:00
    outros vídeos desta música
    repetir qualidade Automático
    Outros vídeos desta música
    00:00 / 00:00
    Automático
    Capítulos
    • Início
    • Afinação
    • Tocando a música
    • Acordes da música
    • Tocando Introdução e Primeira Parte
    • Ensinando Introdução
    • Ensinando Primeira Parte
    • Ensinando Refrão
    • Ensinando Solo
    • Encerramento
    OK