Cifra Club

American Idiot

Green Day

Tab de bajo: Versão 3
Intro
G|------|--------------------------|
D|------|--------------------------|
A|------|------5-5-5-0-0-0-3-0-0-3-|
E|------|-3-3-3--------------------|

Verse
G|----------------------------------------|
D|----------------------------------------|
A|--------------------5-5-5-0-0-0-3-0-0-3-|
E|-X-X-X-X-X-X-X-3-3-3--------------------|

Chorus
G|-------------------------------------------------|
D|-555555555-7-------------------------------------|
A|------------5--------77777777-000-2-3-0-3-232323-|
E|-------------55555555----------------------------|

G|------------------------------------------------------|
D|-555555555-7----------------------------------------2-|
A|------------5--------77777777-------------------------|
E|-------------55555555---------xx-xx-xx-X-xx-xx-xx-X---|

Solo
G|-----------------------10-12-10-------------------------|-------------|
D|-55555555/9-10101010-12--------12-10\9-777-9-7----------|-------------|
A|-----------------------------------------------55555555-|-0000-232323-|
E|--------------------------------------------------------|-------------|

G|-----------------------10-12-10------------------------------------|
D|-55555555/9-10101010-12--------12-10\9-777-9-7---------------------|
A|-----------------------------------------------55555555-3333333333-|BREAK
E|-------------------------------------------------------------------|
                                                                     
Post Solo
G|-------------------------|
D|-----------------------2-|
A|-------------------------|
E|-xx-xx-xx-X-xx-xx-xx-X---|

Ok! thats all of it. you just gotta tell when to put what parts where (most of them are in order)

Tabbed by jess (aka norin)
Composición de Billie Joe Armstrong
15 vistas

0 comentarios

Ver todos los comentarios
00:00 / 00:00
Outros vídeos desta música
Repetir Calidad Automático
Outros vídeos desta música
00:00 / 00:00
Automático
OK