Cifra Club

Angel Blue

Green Day

Tablatura: Principal (guitarra)
Tom: G
Intro:
|------------|------------|------------|-----------|
|------------|-------11---|7-777-7-77--|7-777--1112|
|---9-----9--|---9---11---|9b989b9b98--|9b989b-1111|
|-9~9-9-9~9-9|-9~9-9-11---|----------99|-----------|
|-9~7-9-9~7-9|-9~7-9-9----|------------|-----------|
|-7~--7-7~--7|-7~--7------|------------|-----------|

              Verse 1:                 Pre-Chorus:
|------------|-------------|-------------|-------------|
|1112111211\-|-------------|-------------|-------------|
|1111111111\-|---9--9-11---|-9--9-11---98|----98--11---|
|------------|-9-99-9-119-9|-99-9-119--98|984-9898114--|
|------------|-9-79-7-9-9-9|-79-7-9-9--76|984-76989-4--|
|------------|-7--7-----7-7|--7-----7----|762---76--2--|

 Chorus:
|--------------|-------------|------------|------------|
|--------------|-------------|------------|------------|
|-9-11-9-11-9-1|1-9-11-------|------------|------------|
|-9911-9911-991|1-9911-------|------------|------------|
|-799--799--799|--799--------|------------|------------|
|--7----7----7-|---7---------|------------|------------|

 Bridge:
|------------|-----------|-------------|
|7-777-7-77--|7-777--1112|1112111211\--|
|9b989b9b98--|9b989b-1111|1111111111\--|
|----------99|-----------|-------------|
|------------|-----------|-------------|
|------------|-----------|-------------|

 Verse 2:                 Pre-Chorus:
|-------------|-------------|-------------|
|-------------|-------------|-------------|
|---9--9-11---|-9--9-11---98|----98--11---|
|-9-99-9-119-9|-99-9-119--98|984-9898114--|
|-9-79-7-9-9-9|-79-7-9-9--76|984-76989-4--|
|-7--7-----7-7|--7-----7----|762---76--2--|

 Chorus:                Solo:
|--------------|--------------|------------|------------|
|--------------|--------/12--1|2--12--12--1|2-----12--12|
|-9-11-9-11-9-1|1-9-11-----11-|-11--11--11-|-11---------|
|-9911-9911-991|1-9911--------|------------|----14--14--|
|-799--799--799|--799---------|------------|------------|
|--7----7----7-|---7----------|------------|------------|

|------------|------------|------------|---------------|
|-----12--12-|--/12--12--1|2--12--12---|14b14b14b1412~\|
|------------|-----11--11-|-11--11--11-|---------------|
|14-13--13--1|3-----------|------------|---------------|
|------------|------------|------------|---------------|
|------------|------------|------------|---------------|

 Bridge:
|------------|------------|------------|------------|
|------------|------------|------------|------------|
|-------9----|9-----------|------------|------------|
|-762-9-99-9-|99--762-44--|------------|------------|
|-762-9-79-9-|79--762-44--|------------|------------|
|-540-7--7-7-|-7--540-22--|------------|------------|
                       .

 Verse 3:
|-------------|-------------|-------------|------------|
|-------------|-------------|-------------|------------|
|---9--9-11---|-9--9-11-----|9--9-11----9-|-9----------|
|-9-99-9-119-9|-99-9-119--9-|99-9-119-9-99|-9----------|
|-9-79-7-9-9-9|-79-7-9-9--9-|79-7-9-9-9-79|-7----------|
|-7--7-----7-7|--7-----7--7-|-7-----7-7--7|------------|

 Pre-Chorus:    Chorus:
|------------|--------------|-------------|------------|
|------------|--------------|-------------|------------|
|-98----98---|--9-11-9-11-9-|11-9-11------|------------|
|-98984-98984|--9911-9911-99|11-9911------|------------|
|-76984-76984|--799--799--79|9--799-------|------------|
|---762---762|---7----7----7|----7--------|------------|

 Outro:
|------------|-----------|-------------|
|7-777-7-77--|7-777-7-77-|-------------|
|9b989b9b98--|9b989b9b98-|-------------|
|----------99|----------9|\------------|
|------------|-----------|-------------|
|------------|-----------|-------------|
reproducciones 629
Acordes para:
    Composição: Billie Joe Armstrong / Green Day Colaboración y revision:
    • Lucas Idalino

    0 comentarios

    mostrar más comentarios

    ¿Conseguiste tocar?

    3 tocaron 0 aún no

    ¡Graba un vídeo tocando Angel Blue y envianoslo!

    00:00 / 00:00
    outros vídeos desta música
    repetir qualidade Automático
    Outros vídeos desta música
    00:00 / 00:00
    Automático
    OK