Cifra Club

Ashley

Green Day

Tablatura: Principal (guitarra)
Tom: D
Chorus:         Verse 1:
 |2x**********|
|---------------------------------------------------|
|---------------------------------------------------|
|9---9-12----12-----------------------------------9-|
|9-7-9-12-12-12------------------------7--------7-9-|
|7-7-7-10-12-10------5-0------5----7-5---7--7-5---7-|
|--5------10-----0-3------0-3---7-------------------|

  Pre-Chorus:     Chorus:
  |3x***|         |4x**********|
|--------------------------------|
|--------------------------------|
|-5---7-9--5---4--9---9-12----12-|
|-5-5-7-9--5-5-4--9-7-9-12-12-12-|
|-3-5-5-7--3-5-2--7-7-7-10-12-10-|
|---3--------3------5------10----|

 Solo:
 |4x**************************|
|-------------------------------|
|5---5------5-555/8888----8810b-|
|-4-4-44/777----------7777------|
|-------------------------------|
|-------------------------------|
|-------------------------------|

 Bridge:        Verse 2:
|----------------------------------------------------|
|----------------------------------------------------|
|--------5---2-------------------------------------9-|
|5-2-5-2-5-5-2--------------------------7--------7-9-|
|5-2-5-2-3-5-0------5-0------5------7-5---7--7-5---7-|
|3-0-3-0---3----0-3------0-3---7---------------------|

  Pre-Chorus:     Chorus:         Outro:
  |3x***|         |4x**********|
|-----------------------------------------------|
|-----------------------------------------------|
|-5---7-9--5---4--9---9-12----12----------------|
|-5-5-7-9--5-5-4--9-7-9-12-12-12--22-22-22-22/\-|
|-3-5-5-7--3-5-2--7-7-7-10-12-10--22-22-22-22/\-|
|---3--------3------5------10-----00-00-00-00---|
reproducciones 395
Acordes para:
    Composição: Billie Joe Armstrong / Green Day Colaboración y revision:
    • Lucas Idalino

    0 comentarios

    mostrar más comentarios

    ¿Conseguiste tocar?

    0 tocaron 0 aún no

    ¡Graba un vídeo tocando Ashley y envianoslo!

    00:00 / 00:00
    outros vídeos desta música
    repetir qualidade Automático
    Outros vídeos desta música
    00:00 / 00:00
    Automático
    OK