Cifra Club

Boulevard Of Broken Dreams

Green Day

Tablatura: Principal (guitarra)
Tom: Fm (con acordes en la forma de Em) Capo en 1ª casa
[Primeira Parte]

Em           G
   I walk a lonely road
    D             A             Em
The only one that I have ever known
            G
Don't know where it goes
 D               A
But its home to me and I walk alone

[Riff 1] Em7  G  D  A4(7)

   Em7         G           D
E|-------2--3--------7--5--------2--3-------|
B|-------3--3--------0--0--------3--3-------|
G|-0--0--0--0--------0--0--2--2--2--2-------|
D|-2--2--------0--0--------0--0-------------|
A|-2--2--------| X--X--------0--0-------------|
E|-0| —-0--------3--3-------------------------|

   A4(7)
E|-------3----------------------------------|
B|-3--3--3----------------------------------|
G|-2--2--2----------------------------------|
D|-2--2-------------------------------------|
A|-0--0-------------------------------------|
E|------------------------------------------|

(Variação)

   A4(7)       G6/B
E|------------------------------------------|
B|-3--3--3--3--3----------------------------|
G|-0--0--0--0--0----------------------------|
D|-2--2--2--0--0----------------------------|
A|-0--0--0--2--2----------------------------|
E|------------------------------------------|

Em7             G6
    I walk this empty street
D            A4                   Em7
On the boulevard of broken dreams
           G6
Where the city sleeps
    D            A4(7)                Em7  G
And I'm the only one and I walk alone

D          A4(7)            Em7  G
  I walk alone I walk alone
D          A4(7)      G6/B
  I walk alone I walk a

[Refrão]

C9      G5    D5(9)          Em7(9)
   My shadows only one that walks beside me
C9      G5      D5(9)           Em7(9)
   My shallow hearts the only thing that's beating
C9      G5      D5(9)            Em7(9)
   Sometimes I wish someone up there will find me
C9        G5       B7
   Till then I'll walk alone

( Em  G  D  A )
( Em  G  D  A )

[Primeira Parte Com Variação]

Em7              G6
    I'm walking down the line
  D5(9)          A4              Em7
That divides me somewhere in my mind
        G          D5(9)
On the border line of the edge
     A4(7)
And were I walk alone

( Em7  G  D  A4(7) )

Em7          G6                 D5(9)
    Read between the lines of what's
              A4                Em7
Fucked up and every things all right
          G6              D5(9)          A4(7)
Check my vital signs to know I'm still alive
                 Em7  G
And I walk alone

D          A4(7)            Em7  G
  I walk alone I walk alone
D          A4(7)      G6/B
  I walk alone I walk a

[Refrão]

C9      G5    D5(9)          Em7(9)
   My shadows only one that walks beside me
C9      G5      D5(9)           Em7(9)
   My shallow hearts the only thing that's beating
C9      G5      D5(9)            Em7(9)
   Sometimes I wish someone up there will find me
C9        G5       B7
   Till then I'll walk alone

( Em  G  D  A )
( Em  G  D  A )

Em7  G  D          A4(7)      G6/B
          I walk alone I walk a

( C9  G  D  Em7(9) ) (3X)
( C9  G  B11 )

   C9          G           D
E|-0--0--2--3--------7--5--------2--3-------|
B|-3--3--3--3--------0--0--------3--3-------|
G|-0--0--0--0--------0--0--2--2--2--2-------|
D|-X--X--------0--0--------0--0-------------|
A|-3--3--------| X--X--------0--0-------------|
E|-------------3--3-------------------------|

   Em7(9)
E|-------3----------------------------------|
B|-------3----------------------------------|
G|-0--0--0----------------------------------|
D|------------------------------------------|
A|-2--2--2----------------------------------|
E|-0-| —0—-0----------------------------------|

   C9          G           B11
E|-0--0--2--3--------7--5--0--0--0--0--0----|
B|-3--3--3--3--------0--0--4--4--4--4--4----|
G|-0--0--0--0--------0--0--4--4--4--4--4----|
D|-2--2--------0--0--------| X--X--X--X--X----|
A|-3| —-3--------0--0--------2--2--2--2--2----|
E|------------3--3--------------------------|

E|-0--0--0--0--0--0--0--0-------------------|
B|-4--4--4--4--4--4--4--4-------------------|
G|-4--4--4--4--4--4--4--4-------------------|
D|-X--X--X--X--X--X--X--X-------------------|
A|-2--2--2--2--2--2--2--2-------------------|
E|------------------------------------------|

Em7             G6
    I walk this empty street
D            A4                   Em7
On the boulevard of broken dreams
           G6
Where the city sleeps
    D            A4(7)
And I'm the only one and I walk a

[Refrão]

C9      G5    D5(9)          Em7(9)
   My shadows only one that walks beside me
C9      G5      D5(9)           Em7(9)
   My shallow hearts the only thing that's beating
C9      G5      D5(9)            Em7(9)
   Sometimes I wish someone up there will find me
C9        G5       B7
   Till then I'll walk alone

[Final] E5  C7M  D6(9)  A9/C#  G6  B11/D#
        E5  C7M  D6(9)  A9/C#  G6  B11/D#
        E5  C7M  D6(9)  A9/C#  G6  B11/D#
        Em7(9)
reproducciones 75.712

0 comentarios

mostrar más comentarios

¿Conseguiste tocar?

186 tocaron 7 aún no

¡Graba un vídeo tocando Boulevard Of Broken Dreams y envianoslo!

00:00 / 00:00
outros vídeos desta música
repetir qualidade Automático
Outros vídeos desta música
00:00 / 00:00
Automático
Capítulos
  • Início
  • Tocando a música
  • Acordes da Primeira Parte
  • Tocando a Primeira Parte
  • Ritmo da Primeira Parte
  • Riff da Primeira Parte
  • Acordes do Refrão
  • Tocando o Refrão
  • Ritmo do Refrão
  • Tocando Repetições e Segunda Parte
  • Riff Segunda Parte
  • Acordes do Final
  • Tocando o Final
  • Ritmo do Final
  • Encerramento
OK