Cifra Club

Broekm

Green Day

Tablatura: Principal (guitarra)
Tom: G#
 Fm       G#             D#          A#             Fm 
I walk a lonely road, the only one that I have ever known
            G#            D#               A#              Fm 
Don't know where it goes, But it's home to me and I walk alone

 Fm  G#  D#  A# 

 Fm          G#           D#                A#        Fm 
I walk this empty street, On the Boulevard of broken dreams
             G#            D#          A#              Fm 
When the city sleeps, And I'm the only one and I walk alone

 Fm  G#  D#          A#           Fm 
             I walk alone, I walk alone.
 Fm  G#  D#          A#
             I walk alone, I walk a....

 C#    G#        D#              Fm *
My shadow's the only one that walks beside me
 C#    G#        D#              Fm *
My shallow hearts the only thing that's beating
 C#    G#        D#              Fm *
Sometimes I wish someone out there will find me
 C#     G#     C7 
Till then I walk alone

 Fm    G#     D#        A# 
Ah-Ah Ah-Ah Ah-Ah   Ahhh-Ah 
     Fm    G#     D#     A#
haaa-ah  Ah-Ah Ah-Ah   Ah-Ah

 Repeat chord patterns for the rest of the song. 

I'm walking down the line
That divides me somewhere in my mind
On the border line of the edge
And where I walk alone

Read between the lines
What's fucked up and everything's all right
Check my vital signs, to know I'm still alive
And I walk alone

I walk alone, I walk alone
I walk alone, I walk a....

My shadow's the only one that walks beside me
My shallow heart's the only thing that's beating
Sometimes I wish someone out there will find me
Till then I walk alone

Ah-Ah Ah-Ah Ah-Ah Ahhh-Ah
Ah-Ah Ah-Ah I walk alone, I walk a....

SOLO
e|----------------|----------------|----------------|
b|---------8--9---|---/13-11------|--8--9--------9-|
g|--10-10---------|----------------|----------------|
D|----------------|----------------|----------------|

e|----------------|----------------|----------------|
b|---------8--9---|---/13-11------|--8--9--------9-|
g|--10-10---------|----------------|----------------|
D|----------------|----------------|----------------|

e|----------------|----------------|----------------|
b|---------8--9---|---/13-11------|--8--9--------9-|
g|--10-10---------|----------------|----------------|
D|----------------|----------------|----------------|

e|----------------|--------------------|-----------------|
b|---------8--9---|---/13-11-13-13-13--|-13-13-13-13-----|
g|--10-10---------|--------------------|-----------------|
D|----------------|--------------------|-----------------|

Rhythm -  C#  G#  D#  Fm  x3
          C#  G#  C7 

I walk this empty street
On the Boulevard of broken dreams
Where the city sleeps
And I'm the only one and I walk a...,

My shadow's the only one that walks beside me
My shallow heart's the only thing that's beating
Sometimes I wish someone out there will find me
Till then I walk alone

Outro 
                                            _
e|--------------------------------------|    |
B|--------------------------------------|    |
G|-------6-6-6-8-8-8-7-7-7--------------|    |
D|-3-3-3-6-6-6-8-8-8-7-7-7-6-6-6-2-2-2--|    | 3x
A|-3-3-3-4-4-4-6-6-6-5-5-5-6-6-6-2-2-2--|    |
E|-1-1-1-------------------4-4-4-0-0-0--|   _|

e|--------------------------------------|
B|--------------------------------------|
G|-------6-6-6-8-8-8-7-7-7--------------|
D|-3-3-3-6-6-6-8-8-8-7-7-7--6-6-2-2-----|
A|-3-3-3-4-4-4-6-6-6-5-5-5--6-6-2-2-----|
E|-1-1-1--------------------4-4-0-0-----|
reproducciones 147
Acordes para:
    Colaboración y revision:
    • Danilo Ribeiro

    0 comentarios

    mostrar más comentarios

    ¿Conseguiste tocar?

    0 tocaron 0 aún no

    ¡Graba un vídeo tocando Broekm y envianoslo!

    00:00 / 00:00
    outros vídeos desta música
    repetir qualidade Automático
    Outros vídeos desta música
    00:00 / 00:00
    Automático
    OK