Cifra Club

Crazy Train

Green Day

Tablatura: Principal (guitarra)
Tom: A
(intro 2x)

E|-------------------------------------|
B|-------------------------------------|
G|-------------------------------------|
D|---------------------------7-7-------|
A|-4-4----7-7--2-2--4-4------5-5---2-2-|
E|-2-2----5-5--0-0--2-2------------0-0-|

E|-----------------------------------|
B|-----------------------------------|
G|-----------------------------------|
D|-----------------------------------| (3x)
A|-----4---5---4--2----------2----|
E|-2-2---2---2--------5-4-5-----5-4-0--|

E|----------------------------------------------------------------------------------------
B|-------------5----------------5----------------3----------------------------------------
G|-------------6----------------4----------------2----------------2------------2----------
D|-------------7----------------6----------------4----------------2------------2----------
A|0-----00----------000--------------000---------------000---------0------------0----------
E|--------------------------------------------------------------------------3~------------
reproducciones 289
Acordes para:
    Composição: Ozzy Osbourne Colaboración y revision:
    • Leonardo guimarães

    0 comentarios

    mostrar más comentarios

    ¿Conseguiste tocar?

    1 tocaron 0 aún no

    ¡Graba un vídeo tocando Crazy Train y envianoslo!

    00:00 / 00:00
    outros vídeos desta música
    repetir qualidade Automático
    Outros vídeos desta música
    00:00 / 00:00
    Automático
    OK