Cifra Club

Dirty Rotten Bastards

Green Day

Tablatura: Principal (guitarra)
Tom: F
Intro:
E|-----------------------------------------------------------------------|
B|-----------------------------------------------------------------------|
G|----------3-----------------3--------5---------------------------------|
D|-3--------3--(x2)--3--------3--(x2)--5--(x2)---------------------------|
A|-3--(x8)--1--------3--(x2)--1--------3---------------------------------|
E|-1-----------------1---------------------------------------------------|

VERSE:
E|------------------------------------------------------------------|
B|------------------------------------------------------------------|
G|----------3----------------------------5--------------------------|
D|-3--------3--(x2)--3----------3--------5--(x4)--------------------|
A|-3--(x4)--1--------3--(x2)----3--(x4)--3--------------------------|
E|-1-----------------1----------1-----------------------------------|

E|------------------------------------------------------------------|
B|------------------------------------------------------------------|
G|----------3----------------------------5--------------------------|
D|-3--------3--(x2)--3----------3--------5--(x2)---3----------------|
A|-3--(x4)--1--------3--(x2)----3--(x2)--3---------3--(x3)----------|
E|-1-----------------1----------1------------------1----------------|

CHORUS:
E|-----------------------------------------------------------------------|
B|-----------------------------------------------------------------------|
G|-3-----------------3-----------------3-------------------------5-------|
D|-3--(x4)--3--------3--(x4)--3--------3--(x4)--3--------5-------5--(x3)-|
A|-1--------3--(x4)--1--------3--(x4)--1--------3--(x4)--5-(x4)--3-------|
E|----------1-----------------1-----------------1--------3---------------|


BACK TO INTRO (LEADS INTO PART II)

INTRO:
E|-----------------------------------------------------------------------|
B|-----------------------------------------------------------------------|
G|----------3-----------------3--------5---------------------------------|
D|-3--------3--(x2)--3--------3--(x2)--5--(x2)---------------------------|
A|-3--(x8)--1--------3--(x2)--1--------3---------------------------------|
E|-1-----------------1---------------------------------------------------|

E|-----------------------------------------------------------------------|
B|-----------------------------------------------------------------------|
G|----------3-----------------3--------5---------------------------------|
D|-3--------3--(x2)--3--------3--(x2)--5--(KEEP STRUMMING)---------------|
A|-3--(x8)--1--------3--(x2)--1--------3---------------------------------|
E|-1-----------------1---------------------------------------------------|


PART II
E|-----------------------------------------------------------------------|
B|-----------------------------------------------------------------------|
G|------------------------------------------------5----------------------|
D|-8-8-x--8-8-8-x---------3--------8-8-8-x--------5--(x16)---------------|
A|-8-8-x--8-8-8-x--(x12)--3--(x16--8-8-8-x-(x8)---3----------------------|
E|-6-6-x--6-6-6-x---------1--------6-6-6-x-------------------------------|


PART III                         listen for the strumming to this part
E|-------------------------------------------------------------------------|
B|-------------------------------------------------------------------------|
G|-5-----8---------10---------------10-----------10------------------------|
D|-5--6--8--8--10--10--(BASS PART)--10--8-10-----10--12-10-8-10-12-10------|
A|-3--6--6--8--10--8----------------8---8-10-----8---12-10-8-10-12-10-(x4)-|
E|----4-----6--8------------------------6-8----------10-8--6-8--10-8-------|

        "All F*cked up...."
E|----------------------------------------------------|
B|----------------------------------------------------|
G|-10---------------------------------------10--------|
D|-10----------------------12-10-8-10-8-10--10--(x4)--|
A|-8-----------------------12-10-8-10-8-10--8---------|
E|-------------------------10-8--6-8--6-8-------------|

      "I've got the urge..." listen for strumming
E|----------------------------------------------------|
B|----------------------------------------------------|
G|-----8----------8-----------------------------------|
D|-----8----10----8----10-----------------------------|
A|-----6----10----6----10-----------------------------|
E|----------8----------8------------------------------|

      "Juliet a homicide...."
E|------------------------------------------|
B|------------------------------------------|
G|-10--------------------10-----------------|
D|-10--12-10-8-10-12-10--10--(x4)-----------|
A|-8---12-10-8-10-12-10--8------------------|
E|-----10-8--6-8--10-8----------------------|

     "??? best friends ashes..."
E|--------------------------------------------------|
B|--------------------------------------------------|
G|----------------------------------------10--------|
D|-----------------------12-10-8-10-8-10--10--(x4)--|
A|-----------------------12-10-8-10-8-10--8---------|
E|-----------------------10-8--6-8--6-8-------------|

      "i've got the urge..."
E|----------------------------------------------------|
B|----------------------------------------------------|
G|-----8----------8-----------------------------------|
D|-----8----10----8----10-----------------------------|
A|-----6----10----6----10-----------------------------|
E|----------8----------8------------------------------|


      "Juliet a homicide...."
E|------------------------------------------|
B|------------------------------------------|
G|-10--------------------10-----------------|
D|-10--12-10-8-10-12-10--10--(x4)-----------|
A|-8---12-10-8-10-12-10--8------------------|
E|-----10-8--6-8--10-8----------------------|


     Bass Fills
E|--------------------------------------------------|
B|--------------------------------------------------|
G|----------------------------------------10--------|
D|-----------------------12-10-8-10-8-10--10--(x4)--|
A|-----------------------12-10-8-10-8-10--8---------|
E|-----------------------10-8--6-8--6-8-------------|



solo guitar
E|-6---6---6-----------------6---6---8-----|
B|-9b--9b--9b--8-6-5----6h9--9b--9b--11b---|
G|-----------------------------------------|
D|-----------------------------------------|
A|-----------------------------------------|
E|-----------------------------------------|

|------------------------------------------|
|-11p8----8-11p8----8-11p8----8-11p8----8--|
|------10--------10--------10--------10----|
|------------------------------------------|
|------------------------------------------|
|------------------------------------------|

|-------------------------------------------------|
|-16p13----13-16p13----13-16p13----13-16p13----13-|
|-------13----------13----------13----------13----|
|-------------------------------------------------|
|-------------------------------------------------|
|-------------------------------------------------|

|-13---13---13---|
|-16b--16b--16b--|
|----------------|
|----------------|
|----------------|
|----------------|

|-------------------------------------------------|
|-16p13----13-16p13----13-16p13----13-16p13----13-|
|-------13----------13----------13----------13----|
|-------------------------------------------------|
|-------------------------------------------------|
|-------------------------------------------------|

|-------------------------------------------------------|
|------------------------13----13----13----13-15b-15-13-|
|-15b-15-13--------------13----13----13----13-15b-15-13-|
|---------------13-13h15----15----15----15--------------|
|-------------------------------------------------------|
|-------------------------------------------------------|

|-------------------------------------------------|
|-16p13----13-16p13----13-16p13----13-16p13----13-|
|-------13----------13----------13----------13----|
|-------------------------------------------------|
|-------------------------------------------------|
|-------------------------------------------------|

|-13---13---13---|
|-16b--16b--16b--|
|----------------|
|----------------|
|----------------|
|----------------|


     "guitar solo.."
E|----------------------------------------------------|
B|----------------------------------------------------|
G|-----8----------8-----------------------------------|
D|-----8----10----8----10-----------------------------|
A|-----6----10----6----10-----------------------------|
E|----------8----------8------------------------------|


      "guitar solo cont.."
E|------------------------------------------|
B|------------------------------------------|
G|-10--------------------10-----------------|
D|-10--12-10-8-10-12-10--10--(x4)-----------|
A|-8---12-10-8-10-12-10--8------------------|
E|-----10-8--6-8--10-8----------------------|


     "California's burning to the ground"
E|----------------------------------------------------|
B|----------------------------------------------------|
G|--10--------8-----------------8-8-----8-8-----8-8---|
D|--10--(x8)--8--(x8)--8--------8-8-8-8-8-8-8-8-8-8-8-| (x2)
A|--8---------6--------8--(x4)--6-6-8-8-6-6-8-8-6-6-8-|
E|---------------------6------------6-6-----6-6-----6-|


     "tooooniiiight..."
E|----------------------------------------------------|
B|----------------------------------------------------|
G|--5---------5---8---10------------------------------|
D|--5--(x16)--5-6-8-8-10------------------------------|
A|--3---------3-6-6-8-8-------------------------------|
E|--------------4---6---------------------------------|



*THE CHORD STRUCTURE FOR THIS PART OF THE SONG IS THE SAME AS THE FIRST PART*


RIFF
E|--------------------------------------------------------------------------|
B|--------------------------------------------------------------------------|
G|----------5----7-7-7-5-5--------------5-----------------5-----7-7-7-5-5---|
D|--7-7-7-8---------------------7-7-7-8---7-5~~~--7-7-7-8-------------------|
A|-------------8------------8--------------------------------8------------8-|
E|--------------------------------------------------------------------------|


E|-------------------/13--|
B|------------------------|
G|------------------------|
D|--7-7-5-5-5-------------|
A|------------------------|
E|------------------------|


     "1..2..3..."         "way, carried away...." (not 100% sure on chords)
E|--------------------------------------------------------------------------|
B|--------------------------------------------------------------------------|
G|--5---------7-----------------5-5-------5-5-------5-5-------7-7-7---------|
D|--5--(X6)---7--(x6)-------5---5-5--3-5--5-5--3-5--5-5--3-5--7-7-7--(X3)---|
A|--3---------5-------------5---3-3--3-5--3-3--3-5--3-3--3-5--5-5-5---------|
E|--------------------------3--------1-3-------1-3-------1-3----------------|


RIFF:
E|----------------------------------|
B|-----5----------------------------|
G|---7---7-5-7--5-4-2-4--2-4-2-0----|
D|----------------------------------|
A|----------------------------------|
E|----------------------------------|
reproducciones 645
Acordes para:
    Composição: Billie Joe Armstrong / Green Day Colaboración y revision:
    • Lucas Idalino

    0 comentarios

    mostrar más comentarios

    ¿Conseguiste tocar?

    1 tocaron 0 aún no

    ¡Graba un vídeo tocando Dirty Rotten Bastards y envianoslo!

    00:00 / 00:00
    outros vídeos desta música
    repetir qualidade Automático
    Outros vídeos desta música
    00:00 / 00:00
    Automático
    OK