Cifra Club

Don't Leave Me

Green Day

Tablatura: Principal (guitarra)
Tom: A
INTRO: B A E B B A E B B A E B B A E

e|-----------------------------|
B|-----------------------------|
G|-------------7-7-7-7---------|
D|-9-9-9-7-7-7-7-7-7-7-9-9-9-9-|
A|-9-9-9-7-7-7-5-5-5-5-9-9-9-9-|
E|-7-7-7-5-5-5---------7-7-7-7-|

VERSO 1:
B A D B
I'll go for miles 
B A D B
Till I find you
A D
You say you want to leave me
B
But you can't choose

B A D B
I've gone through pain
B A D B
Every day and night
A D
I feel my mind is going insane
B
Something I can't fight

REFRÃO: 
A B
Don't leave me
A B
Don't leave me

VERSO 2:

B A D B B A D B
B A D B
A blank expression
B A D B
Covering your face
A D
I'm looking for directions
B
For out of this place

B A D B
I start to wonder
B A D B
If you'll come back
A D
I feel the rain storming after thunder
B
I can't hold back

(REFRÃO)

(REFRÃO)

Interlude: B A D B B A D B - 2x

Ponte:
e|------------------------------------------|
B|------------------------------------------|
G|-----------7-------------------4----------|
D|--7-7-77-7---7-7-7-7--4-4-44-4---4-4-4-4--|
A|--7-7-77-----7---7-7--4-4-44-----4---4-4--|
E|--5-5-55-----5---5-5--2-2-22-----2---2-2--| - 4x 


(VERSO 1)

(REFRÃO)

(REFRÃO)

FIM: B A D B
reproducciones 240
Acordes para:
    Composição: Billie Joe Armstrong / Green Day Colaboración y revision:
    • Rodolfo Guebara

    0 comentarios

    mostrar más comentarios

    ¿Conseguiste tocar?

    0 tocaron 0 aún no

    ¡Graba un vídeo tocando Don't Leave Me y envianoslo!

    00:00 / 00:00
    outros vídeos desta música
    repetir qualidade Automático
    Outros vídeos desta música
    00:00 / 00:00
    Automático
    OK