Cifra Club

Fuck Time

Green Day

Tablatura: Principal (guitarra)
Tom: A
Intro/Verse 1: Chorus:
  |6x******|
|-------------|---------------------------------|
|-------------|---------------------------------|
|----7--------|---------------------------------|
|--7-7-7-9\---|---------2-2-4-2---------2-2-4-2-|
|--7-5-7-9\---|-0-0-4-4---------0-0-4-4---------|
|--5---5-7---|---------------------------------|

|--------------------------------------------------|
|--------------------------------------------------|
|--------------------------------------------------|
|------------------------------------------2-2-4-2-|
|---------2-2-4-2---------2-2-4-2--0-0-4-4---------|
|-0-0-4-4---------0-0-4-4--------------------------|

                        Bridge:     D5 D5 D5 E5   D5 D5 D5 E5
|--------------------|--------------------------------------|
|-----------------4--|-------5-5----------------------------|
|-----------------4--|-----2-5-5--7-12----9\-------12----9\-|
|--------2-2-4-2--4--|-2-5-2-5-5--7-12-12-9\----12-12-12-9\-|
|0-0-4-4----------2--|-2-5-0-3-3--5-10-12-7\----12-10-12-7\-|
|--------------------|-0-3-------------10-------10----10----|

      Verse 2:    Chorus:
     |4x******|
|---------------|----------------------------------|
|---------------|----------------------------------|
|-2b\---7-------|----------------------------------|
|-----7-7-7-9\--|---------2-2-4-2---------2-2-4-2--|
|-----7-5-7-9\--|-0-0-4-4---------0-0-4-4----------|
|-----5---5-7\--|----------------------------------|

|--------------------------------------------------|
|--------------------------------------------------|
|--------------------------------------------------|
|------------------------------------------2-2-4-2-|
|---------2-2-4-2---------2-2-4-2--0-0-4-4---------|
|-0-0-4-4---------0-0-4-4--------------------------|

                         Bridge:     D5 D5 D5 E5
|---------------------------------------------|
|-----------------4----------5-5\-------------|
|-----------------4--------2-5-5\--7-12----9\-|
|--------2-2-4-2--4----2-5-2-5-5\--7-12-12-9\-|
|0-0-4-4----------2----2-5-0-3-3\--5-10-12-7\-|
|----------------------0-3--------------10----|

 Solo:
|----------------------------------12-----------|
|------------12-10---------12--12--12-12--15b~\-|
|-2b-2b-2b/\-------12-9-12-14b-14bh---14b-------|
|-----------------------------------------------|
|-----------------------------------------------|
|-----------------------------------------------|

                              |3x***|
|-----------------------------\----X---\---|
|-15b15b15b15b-12p10h---10b~\-\----X---\---|
|--------------------12p------\----X---\---|
|-----------------------------\---(2)--\---|
|-----------------------------\---(2)--\---|
|----------------------------(12)-(0)-(12)-|

|-10--10--------10h--10--10--------10h---17----------|
|-10--10--------10h--10--10--------10h---17----------|
|-12bh12b-------12b1212bh12b-------12b12/19b---------|
|--------12-10--------------12-10-----------21-19-17-|
|-------------12-----------------12------------------|
|----------------------------------------------------|

|17--17--17----------16b15-------------------------12*-|
|17--17--17--15b~--17-----17-15-15b-15p13h15b15-12*----|
|19bh19bh19bh------------------------------------------|
|------------------------------------------------------|
|------------------------------------------------------|
|------------------------------------------------------|

|----------------------------------------|
|-12h~-12-12-12-12~-/16h~-16-16-16-16~\--|
|-14bh~14b14b14b14b~/18bh~18b18b18b18b~\-|
|----------------------------------------|
|----------------------------------------|
|----------------------------------------|
 Bridge:              Outro:
                                 |3x*******|
|-------------------|------------------------------------|
|---------------5-5-|------------------------------------|
|-----2-5-----2-5-5-|---7-----------7-------2b~---7------|
|-2-5-2-5-2-5-2-5-5-|-7-7-7-9\----7-7-7-9\------7-7-7-9\-|
|-2-5-0-3-2-5-0-3-3-|-7-5-5-9\----7-5-5-9\------7-5-5-7\-|
|-0-3-----0-3-------|-5---5-7\----5---5-7\------5---5-7\-|
reproducciones 1.971
Acordes para:
    Composição: Billie Joe Armstrong Colaboración y revision:
    • Roger Etienne
    • Renaldo Ramos
    • Maria

    0 comentarios

    mostrar más comentarios

    ¿Conseguiste tocar?

    3 tocaron 0 aún no

    ¡Graba un vídeo tocando Fuck Time y envianoslo!

    00:00 / 00:00
    outros vídeos desta música
    repetir qualidade Automático
    Outros vídeos desta música
    00:00 / 00:00
    Automático
    OK