Cifra Club

I Fought The Law

Green Day

Tablatura: Principal (guitarra)
Tom: C
INTRO:
E|----------------------------------------------------------|
B|-11/13-13-13-13-13--11/13-13-13--11/13-13-13--11/13-13-13-|
G|----------------------------------------------------------|
D|----------------------------------------------------------|
A|----------------------------------------------------------|
E|----------------------------------------------------------| x2
|                                                          |
E|----------------------------------------------------------|
B|----------------------------------------------------------|
G|-10-10-10-10-10-10-----------------------------10-10-10-10|
D|-10-10-10-10-10-10--8-8-8-8-8-8-8/10-10-10-10--10-10-10-10|
A|-8--8--8--8--8--8---8-8-8-8-8-8-8/10-10-10-10--8--8--8--8-|
E|--------------------6-6-6-6-6-6-6/8--8--8--8--------------|
E|-------------|
B|-13-11-10-6-o|
G|-------------|
D|-------------|
A|------------o|
E|-------------| x2
|             |
E|-------------|
B|-------------|
G|---------10--|
D|-10-8-7--10--|
A|-10-8-7--8---|
E|-8--6-5------| x2
VERSE:
E|---x-x---x-x----------|---x-x---x-x----------|---x-x---x-x-----------|
B|---x-x---x-x----------|---x-x---x-x----------|---x-x---x-x-----------|
G|-10x-x-10x-x--------10|-10x-x-10x-x--------10|-10x-x-10x-x---------10|
D|-10x-x-10x-x--x-x-x-10|-10x-x-10x-x-x-x-x--10|-10x-x-10x-x--x-x-x--10|
A|-8------8-----x-x-x-8-|-8-----8-----x-x-x--8-|-8-----8------x-x-x--8-| X2
E|--------------x-x-x---|-------------x-x-x----|--------------x-x-x----|
| (COUNTER MELODY)                                                    |
E|---------------------------------------------------------------------|
B|---------------------------------------------------------------------|
G|-10-10-10-10---------10-10-10-10-10---------10-10-10-10-10---------10|
D|-10-10-10-10-8-8-8-8-10-10-10-10-10-8-8-8-8-10-10-10-10-10-1010101010|
A|-8--8--8--8--8-8-8-8-8--8--8--8--8--8-8-8-8-8--8--8--8--8--10101010-8|
E|-------------6-6-6-6----------------6-6-6-6----------------8-8-8-8---|
PM ********************************************************************* x2
CHORUS:
E|---------------------------------------------------------------------------|
B|---------------------------------------------------------------------------|
G|----------------------------101010101010101010101010-----------------------|
D|----8-8-8-8-8-8-8-8-8-8-8-8-101010101010101010101010-8-8-8-8-8-8-8-8-8-8-8-|
A|----8-8-8-8-8-8-8-8-8-8-8-8-8-8-8-8-8-8-8-8-8-8-8-8--8-8-8-8-8-8-8-8-8-8-8-|
E|-12/6-6-6-6-6-6-6-6-6-6-6-6--------------------------6-6-6-6-6-6-6-6-6-6-6-|
|                                                                           |
E|--6-----------6------------5~~----------------------6------------6---------|
B|--------8------------8--------------------------------------8-----------8--|
G|---------------------------------------------------------------------------|
D|---------------------------------------------------------------------------|
A|---------------------------------------------------------------------------|
E|---------------------------------------------------------------------------|
E|---x-x---x-x----------|---x-x---x-x-------------------|
B|---x-x---x-x----------|---x-x---x-x-------------------|
G|-10x-x-10x-x--------10|-10x-x-10x-x-------------10----|
D|-10x-x-10x-x--x-x-x-10|-10x-x-10x-x---10--8--7--10----|
A|-8-----8------x-x-x-8-|-8-----8-------10--8--7--8-----|
E|--------------x-x-x---|---------------8---6--5--------|
|                                                      |
E|-5~~~~~~~~~~~~~~--------------------------------------|
B|------------------------------------------------------|
G|--10-10-10-10---------10-10-10-10-10------------10----|
D|--10-10-10-10-8-8-8-8-10-10-10-10-10--10--8--7--10----|
A|--8--8--8--8--8-8-8-8-8--8--8--8--10--10--8--7--8-----|
E|--------------6-6-6-6-----------------8---6--5--------|
SOLO:
E|-----------------------------|--------------------------|
B|-----------------------------|-------------------------o|
G|-----------------------------|-1010x------10-1010-1010--|
D|-8-~~~~~~~~~~~~~~~~~~~~~~~~~-|-1010x-1010-10-1010-1010--|
A|-8-~~~~~~~~~~~~~~~~~~~~~~~~~-|-8-8-x-1010-8---8-8-8-8--o|
E|-6-~~~~~~~~~~~~~~~~~~~~~~~~~-|--------88----------------|
|                                                        |
E|----------------------------------------------17--------|
B|----------------------10-------11----13--/-18---or/(22)o|
G|-----------10--/--12------------------------------------|
D|-10--/--12----------------------------------------------|
A|-------------------------------------------------------o|
E|--------------------------------------------------------|
E|-----------------------------|--------------------------|
B|-----------------------------|-------------------------o|
G|-----------------------------|-1010x------10-1010-1010--|
D|-8-~~~~~~~~~~~~~~~~~~~~~~~~~-|-1010x-1010-10-1010-1010--|
A|-8-~~~~~~~~~~~~~~~~~~~~~~~~~-|-8-8-x-1010-8---8-8-8-8--o|
E|-6-~~~~~~~~~~~~~~~~~~~~~~~~~-|--------88----------------|
|                                                        |
E|----------------------------------------------17--------|
B|----------------------10-------11----13--/-18---or/(22)o|
G|-----------10--/--12------------------------------------|
D|-10--/--12----------------------------------------------|
A|-------------------------------------------------------o|
E|--------------------------------------------------------|
E|-----------------------------|--------------------------|
B|-----------------------------|-------------------------o|
G|-----------------------------|-1010x------10-1010-1010--|
D|-8-~~~~~~~~~~~~~~~~~~~~~~~~~-|-1010x-1010-10-1010-1010--|
A|-8-~~~~~~~~~~~~~~~~~~~~~~~~~-|-8-8-x-1010-8---8-8-8-8--o|
E|-6-~~~~~~~~~~~~~~~~~~~~~~~~~-|--------88----------------|
|                                                        |
E|----------------------------------------------17--------|
B|----------------------10-------11----13--/-18---or/(22)o|
G|-----------10--/--12------------------------------------|
D|-10--/--12----------------------------------------------|
A|-------------------------------------------------------o|
E|--------------------------------------------------------|
E|-----------------------------|
B|-----------------------------|
G|-----------------------------|
D|-8-8-8-8-8-8-8-8-8-8-8-8-8-8-|
A|-8-8-8-8-8-8-8-8-8-8-8-8-8-8-|
E|-6-6-6-6-6-6-6-6-6-6-6-6-6-6-|
|
E|-----------------------------|
B|----------------------10-----|
G|-----------10--/--12---------|
D|-10--/--12-------------------|
A|-----------------------------|
E|-----------------------------|
E|----------------------------------------------------------|
B|-11/13-13-13-13-13--11/13-13-13--11/13-13-13--11/13-13-13-|
G|----------------------------------------------------------|
D|----------------------------------------------------------|
A|----------------------------------------------------------|
E|----------------------------------------------------------| x2
|                                                          |
E|----------------------------------------------------------|
B|----------------------------------------------------------|
G|-10-10-10-10-10-10----------------10-10-10-10--10-10-10-10|
D|-10-10-10-10-10-10--8-8-8-8-8-8-8-10-10-10-10--10-10-10-10|
A|-8--8--8--8--8--8---8-8-8-8-8-8-8-8--8--8--8---8--8--8--8-|
E|--------------------6-6-6-6-6-6-6-------------------------|
notice that they play F chord instead of C chord this time~~**
E|-------------|
B|-13-11-10-6--|
G|-------------|
D|-------------|
A|-------------|
E|-------------|
|             |
E|-------------|
B|-------------|
G|---------10--|
D|-10-8-7--10--|
A|-10-8-7--8---|
E|-8--6-5------|
VERSE:
E|---x-x---x-x-|--------|---x-x---x-x----------|---x-x---x-x-------------|
B|---x-x---x-x-|--------|---x-x---x-x----------|---x-x---x-x-------------|
G|-10x-x-10x-x-|--------|-10x-x-10x-x--------10|-10x-x-10x-x----------10-|
D|-10x-x-10x-x-|--------|-10x-x-10x-x-x-x-x--10|-10x-x-10x-x--x-x-x-x-10-|
A|-8------8----|-DRUMS--|-8-----8-----x-x-x--8-|-8-----8------x-x-x-x-8--|
E|-------------|--------|-------------x-x-x----|--------------x-x-x-x----|
| (COUNTER MELODY)                                                      |
E|-------------|--------|------------------------------------------------|
B|-------------|--------|------------------------------------------------|
G|-10-10-10-10-|--------|10-10-10-10-10---------10-10-10-10-10---------10|
D|-10-10-10-10-|--------|10-10-10-10-10-8-8-8-8-10-10-10-10-10-1010101010|
A|-8--8--8--8--|--------|8--8--8--8--8--8-8-8-8-8--8--8--8--8--10101010-8|
E|-------------|--------|---------------6-6-6-6----------------8-8-8-8---|
PM ***********************************************************************
E|---x-x---x-x----------|---x-x---x-x----------|---x-x---x-x-----------|
B|---x-x---x-x----------|---x-x---x-x----------|---x-x---x-x-----------|
G|-10x-x-10x-x--------10|-10x-x-10x-x--------10|-10x-x-10x-x---------10|
D|-10x-x-10x-x--x-x-x-10|-10x-x-10x-x-x-x-x--10|-10x-x-10x-x--x-x-x--10|
A|-8------8-----x-x-x-8-|-8-----8-----x-x-x--8-|-8-----8------x-x-x--8-| X2
E|--------------x-x-x---|-------------x-x-x----|--------------x-x-x----|
| (COUNTER MELODY)                                                    |
E|---------------------------------------------------------------------|
B|---------------------------------------------------------------------|
G|-10-10-10-10---------10-10-10-10-10---------10-10-10-10-10---------10|
D|-10-10-10-10-8-8-8-8-10-10-10-10-10-8-8-8-8-10-10-10-10-10-1010101010|
A|-8--8--8--8--8-8-8-8-8--8--8--8--8--8-8-8-8-8--8--8--8--8--10101010-8|
E|-------------6-6-6-6----------------6-6-6-6----------------8-8-8-8---|
PM ***********************************************************************
CHORUS:
E|---------------------------------------------------------------------------|
B|---------------------------------------------------------------------------|
G|----------------------------101010101010101010101010-----------------------|
D|----8-8-8-8-8-8-8-8-8-8-8-8-101010101010101010101010-8-8-8-8-8-8-8-8-8-8-8-|
A|----8-8-8-8-8-8-8-8-8-8-8-8-8-8-8-8-8-8-8-8-8-8-8-8--8-8-8-8-8-8-8-8-8-8-8-|
E|-12/6-6-6-6-6-6-6-6-6-6-6-6--------------------------6-6-6-6-6-6-6-6-6-6-6-|
|                                                                           |
E|--6-----------6------------5~~----------------------6------------6---------|
B|--------8------------8--------------------------------------8-----------8--|
G|---------------------------------------------------------------------------|
D|---------------------------------------------------------------------------|
A|---------------------------------------------------------------------------|
E|---------------------------------------------------------------------------|
E|---x-x---x-x----------|---x-x---x-x-------------------|
B|---x-x---x-x----------|---x-x---x-x-------------------|
G|-10x-x-10x-x--------10|-10x-x-10x-x-------------10----|
D|-10x-x-10x-x--x-x-x-10|-10x-x-10x-x---10--8--7--10----|
A|-8-----8------x-x-x-8-|-8-----8-------10--8--7--8-----|
E|--------------x-x-x---|---------------8---6--5--------|
|                                                      |
E|-5~~~~~~~~~~~~~~--------------------------------------|
B|------------------------------------------------------|
G|--10-10-10-10---------10-10-10-10-10------------10----|
D|--10-10-10-10-8-8-8-8-10-10-10-10-10--10--8--7--10----|
A|--8--8--8--8--8-8-8-8-8--8--8--8--10--10--8--7--8-----|
E|--------------6-6-6-6-----------------8---6--5--------|
E|----------------------------------------------------------|
B|-11/13-13-13-13-13--11/13-13-13--11/13-13-13--11/13-13-13-|
G|----------------------------------------------------------|
D|----------------------------------------------------------|
A|----------------------------------------------------------|
E|----------------------------------------------------------| x2
|                                                          |
E|----------------------------------------------------------|
B|----------------------------------------------------------|
G|-10-10-10-10-10-10-----------------------------10-10-10-10|
D|-10-10-10-10-10-10--8-8-8-8-8-8-8/10-10-10-10--10-10-10-10|
A|-8--8--8--8--8--8---8-8-8-8-8-8-8/10-10-10-10--8--8--8--8-|
E|--------------------6-6-6-6-6-6-6/8--8--8--8--------------|
E|-------------|
B|-13-11-10-6-o|
G|-------------|
D|-------------|
A|------------o|
E|-------------| x2
|             |
E|-------------|
B|------------o|
G|---------10--|
D|-10-8-7--10--|
A|-10-8-7--8--o|
E|-8--6-5------|
Outro:
E|------------------------------------|------------------------------------|
B|------------------------------------|------------------------------------|
G|-10101010----------10101010-10101010|----------10101010-10101010---------|
D|-10101010-8-8-8-8--10101010-10101010|-10101010-10101010-10101010-8-8-8-8-|
A|-8-8-8-8--8-8-8-8--8-8-8-8--8-8-8-8-|-10101010-8-8-8-8--8-8-8-8--8-8-8-8-|
E|----------6-6-6-6-------------------|-8-8-8-8--------------------6-6-6-6-|
PM ********************************** *************************************
E|------------------|---------------------------|
B|------------------|---------------------------|
G|-10101010-10101010|-10101010------------10----|
D|-10101010-10101010|-10101010--10--8--8--10~---|
A|-8-8-8-8--8-8-8-8-|-8-8-8-8---10--8--7--8~----|
E|------------------|-----------8---6--5--------|
PM **************************
reproducciones 222
Acordes para:
    Composição: Sonny Curtis Colaboración y revision:
    • Pedro Silva

    0 comentarios

    mostrar más comentarios

    ¿Conseguiste tocar?

    1 tocaron 1 aún no

    ¡Graba un vídeo tocando I Fought The Law y envianoslo!

    00:00 / 00:00
    outros vídeos desta música
    repetir qualidade Automático
    Outros vídeos desta música
    00:00 / 00:00
    Automático
    OK