Cifra Club

Jesus Of Suburbia

Green Day

Tablatura: Principal
reproducciones 9.966
Tono: F#
[Verse]

E|---------------------------------------------------------|
B|---------------------------------------------------------|
G|-6-6-6-6-------------------------------------------------|
D|-6-6-6-6----8-8-8-8----444444444444444--666666666666666--|
A|-4-4-4-4----8-8-8-8----444444444444444--666666666666666--|
E|------------6-6-6-6----222222222222222--4444444444444444-|

[Chorus]

E|------------------------------|
B|------------------------------|
G|------------------------------|
D|-4444--66666------------------|
A|-4444--66666------------------|
E|-2222--44444------------------|

[Ponte]

E|------------------------------|
B|------------------------------|
G|-6-6--------------------------|
D|-6-6--6-6--4-4444444----------|
A|-4-4--6-6--4-4444444----------|
E|------4-4--2-2222222----------|

[Outro]

E|----------------------------------------|
B|----------------------------------------|
G|-6-6-6-6--------------------------------|
D|-6-6-6-6----3-3-3-3----8-8-8--6-6-6--4--|
A|-4-4-4-4----3-3-3-3----8-8-8--6-6-6--4--|
E|------------1-1-1-1----6-6-6--4-4-4--2--|

[Riff 2]

E|----------------------------------------|
B|----------------------------------------|
G|4--464-3--------------------------------|
D|----------6-----686-4-------------------|
A|----------------------------------------|
E|----------------------------------------|

E|----------------------------------------|
B|----------------------------------------|
G|----------------------------------------|
D|----------------------4-4-4-4---6-6-6-6-|
A|----------------------4-4-4-4---6-6-6-6-|
E|----------------------2-2-2-2---4-4-4-4-|
Acordes para:

    0 comentarios

      mostrar más comentarios

      ¿Conseguiste tocar?

      49tocaron3aún no

      ¡Graba un vídeo tocando Jesus Of Suburbia y envianoslo!

      00:00 / 00:00
      outros vídeos desta música
      repetirqualidadeautomática
      Outro vídeos desta música
        00:00 / 00:00
        automática
        OK