Cifra Club

Jesus Of Suburbia

Green Day

Tablatura: Principal (guitarra)
reproducciones 10.635
Tono: C#
[Verse] 
 
     C#5        Bb5           F#5              G#5

E|---------------------------------------------------------|
B|---------------------------------------------------------|
G|-6-6-6-6-------------------------------------------------|
D|-6-6-6-6----8-8-8-8----444444444444444--666666666666666--|
A|-4-4-4-4----8-8-8-8----444444444444444--666666666666666--|
E|------------6-6-6-6----222222222222222--4444444444444444-|

[Chorus]

   F#5    G#5

E|------------------------------|
B|------------------------------|
G|------------------------------|
D|-4444--66666------------------|
A|-4444--66666------------------|
E|-2222--44444------------------|

[Ponte]

  C#5   G#5   F#5

E|------------------------------|
B|------------------------------|
G|-6-6--------------------------|
D|-6-6--6-6--4-4444444----------|
A|-4-4--6-6--4-4444444----------|
E|------4-4--2-2222222----------|

[Outro]

    C#5         F5        Bb5    G#5    F#5   G#5
 
E|---------------------------------------------|
B|---------------------------------------------|
G|-6-6-6-6-------------------------------------|
D|-6-6-6-6----3-3-3-3----8-8-8--6-6-6--4-4-4--6|
A|-4-4-4-4----3-3-3-3----8-8-8--6-6-6--4-4-4--6|
E|------------1-1-1-1----6-6-6--4-4-4--2-2-2--4|

[Riff 2]

E|----------------------------------------|
B|----------------------------------------|
G|----------------------------------------|
D|----------------------------------------|
A|--4---4h6p4---3---1----1h3p1------------|
E|--------------------------------4-------|
 
                          F#5        G#5

E|----------------------------------------|
B|----------------------------------------|
G|----------------------------------------|
D|----------------------4-4-4-4---6-6-6-6-|
A|----------------------4-4-4-4---6-6-6-6-|
E|----------------------2-2-2-2---4-4-4-4-|
Acordes para:

    0 comentarios

      mostrar más comentarios

      ¿Conseguiste tocar?

      49tocaron3aún no

      ¡Graba un vídeo tocando Jesus Of Suburbia y envianoslo!

      00:00 / 00:00
      outros vídeos desta música
      repetirqualidadeAutomático
      Outro vídeos desta música
        00:00 / 00:00
        OK