Cifra Club

Knowledge

Green Day

Tablatura: Principal (guitarra)
Tom: G
A musica é tocada nesses 3 acordes:
D C e Bm

Guitar solo in D pentatonic (not my tabbing):
E|-------10-------10-------10-------10-|
B|----10-------10-------10-------10----|
G|-12b------12b------12b------12b------|
D|-------------------------------------|
A|-------------------------------------|
E|-------------------------------------|


E|-------10-------10-------10-------10-|
B|----10-------10-------10-------10----|
G|-12b------12b------12b------12b------|
D|-------------------------------------|
A|-------------------------------------|
E|-------------------------------------|
         
                                     
E|----------------------------------10-|
B|-------------------------------10----|
G|-12b-r-10-10-10-10-10-10-10-12b------|
D|-------------------------------------|
A|-------------------------------------|
E|-------------------------------------|

  
E|-------------13b---------13-10-------|
B|-13b---13-------------------------13-|
G|-------------------------------------|
D|-------------------------------------|
A|-------------------------------------|
E|-------------------------------------|

   
E|-10----------------------------------|
B|-------13-11-10----10----------------|
G|----------------12----12-10-10-12----|
D|-------------------------------------|
A|-------------------------------------|
E|-------------------------------------|

E|-------------------------------------|
B|-10----------------------------------|
G|-------12-10----10----------12----10-|
D|-------------------------------------|
A|-------------------------------------|
E|-------------------------------------|

                                   
E|-------10------------------------------|
B|----10---------------------------------|
G|-12b------12b-r-10-10-10-10-12p10---10-|
D|---------------------------------12----|
A|---------------------------------------|
E|---------------------------------------|

  
E|-------------------------------------|
B|-------------------------------------|
G|-------------------------------------|
D|-12-11-10----------------12~---------|
A|----------12-11-10-------------------|
E|-------------------13----------------|
reproducciones 284
Acordes para:
    Composição: David Mello / Jesse Michaels / Roger Freeman / Tim Armstrong Colaboración y revision:
    • Eduardo L.
    • Leandro Leal

    0 comentarios

    mostrar más comentarios

    ¿Conseguiste tocar?

    1 tocaron 0 aún no

    ¡Graba un vídeo tocando Knowledge y envianoslo!

    00:00 / 00:00
    outros vídeos desta música
    repetir qualidade Automático
    Outros vídeos desta música
    00:00 / 00:00
    Automático
    OK