Cifra Club

Last Night On Earth

Green Day

Tablatura: Principal (guitarra)
Tom: A
             A               A5+
E|----------------------------------------|
B|---2--2---------------2--2--------------|
G|---2------2---2-------2-------2---2-----|
D|---2--------2---------3---------3-------|
A|---0------------------0-----------------|
E|----------------------------------------|

       A6               A7
E|----------------------0--0--------------|
B|---5--5---------------2------2---2------|
G|---6------6---6-------0--------0--------|
D|---4--------4---------2-----------------|
A|---0------------------------------------|
E|---5------------------------------------|

         D                Dm
E|---2--2---------------1---1-------------|
B|---3------3---3-------3-------3----3----|
G|---2--------2---------2----------2------|
D|---0------------------0-----------------|
A|----------------------------------------|
E|----------------------------------------|

Intro: A  A5+ A6  A7  D  Dm  A

verso 1

A        A5+               A6
I text a postcard, sent to you
             A7
Did it go through?
D       Dm              A
Sending all my love to you
A            A5+             A6
You are the moonlight of my life
       A7
Every night
D      Dm              A
Giving all my love to you

D          Dm                A
My beating heart belongs to you
D            Dm                  A
I walked for miles 'till I found you
D           Dm
I'm here to honor you
A    A/G   F#m     E         D
If I lose everything in the fire
            Dm              A
I'm sending all my love to you

( A  A5+ A6  A7  D  Dm  A )

A           A5+              A6
With every breath that I am worth
         A7
Here on Earth
D           Dm              A
I'm sending all my love to you
A         A5+              A6
So if you dare to second guess
         A7
You can rest
D            Dm                 A
Assured that all my love's for you

D          Dm               A
My beating heart belongs to you
D            Dm                  A
I walked for miles 'till I found you
D           Dm
I'm here to honor you
A    A/G   F#m     E         D
If I lose everything in the fire
            Dm              A
I'm sending all my love to you

E|-----------------------------------------------------------|
B|-----------------------------------------------------------|
G|---2/9---9/10--10/11--11/12-----14/11--14/10--14/9--(2x)---|
D|-----------------------------------------------------------|
A|-----------------------------------------------------------|
E|-----------------------------------------------------------|

( A  A5+ A6  A7  D  Dm  A )

D          Dm               A
My beating heart belongs to you
D            Dm                  A
I walked for miles 'till I found you
D           Dm
I'm here to honor you
A    A/G   F#m     E         D
If I lose everything in the fire
      Dm              A A5+ A6  A7  D  Dm
Did I ever make it through?
reproducciones 7.117
Acordes para:
    Composição: Billie Joe Armstrong / Green Day Colaboración y revision:

    0 comentarios

    mostrar más comentarios

    ¿Conseguiste tocar?

    20 tocaron 3 aún no

    ¡Graba un vídeo tocando Last Night On Earth y envianoslo!

    00:00 / 00:00
    outros vídeos desta música
    repetir qualidade Automático
    Outros vídeos desta música
    00:00 / 00:00
    Automático
    OK