Cifra Club

Last Ride In

Green Day

Tablatura: Principal (guitarra)
Tom: E
4/4 time, 120bpm 

G|-----------------|-----------------|-----------------|-----------------| 
D|-----------------|-----------------|-----------------|-----------------| 
A|-2-----------2---|-0-----------0---|-2-----------2---|-0-----------0---| 
E|-------2---------|-------0---------|-------2---------|-------0---------| 
| bass                                                                  | 
E|-----------------|-----------------|-----------------|-----------------| 
B|-----------------|-----------------|-----------------|-----------------| 
G|-----------------|-----------------|-----------------|-----------------| 
D|-----------------|-----------------|-----------------|-----------------| 
A|-----------------|-----------------|-----------------|-----------------| 
E|-----------------|-----------------|-----------------|-----------------| 
   guitar 

G|-----------------|-----------------|-----------------|-----------------| 
D|-----------------|-----------------|-----------------|-----------------| 
A|-2-----------2---|-0-----------0---|-2-----------2---|-0-----------0---| 
E|-------2---------|-------0---------|-------2---------|-------0---------| 
| bass                                                                  | 
E|-2---------------|-----------------|-----------------|-----------------| 
B|-4---------------|-----------------|-----------------|-----------------| 
G|-4---------------|-----------------|-----------------|-----------------| 
D|-----------------|-----------------|-----------------|-----------------| 
A|-----------------|-----------------|-----------------|-----------------| 
E|-----------------|-----------------|-----------------|-----------------| 
   guitar 

                                                            Play 4 times 
G|-----------------|-----------------|-----------------|-----------------| 
D|*----------------|-----------------|-----------------|----------------*| 
A|*2-----------2---|-0-----------0---|-2-----------2---|-0-----------0--*| 
E|-------2---------|-------0---------|-------2---------|-------0---------| 
| bass                                                                  | 
E|-----------------|-----------------|-----------------|-----------------| 
B|-----------------|-----------------|-----------------|-----------------| 
G|*----------------|-----------------|-----------------|----------------*| 
D|*----------------|-----------------|-----------------|----------------*| 
A|-2-----------2---|-0-----0-4---4-0-|-2---------------|-----------------| 
E|-------2---------|-----------------|-----------------|-----------------| 
   guitar 

G|-----------------|-----------------|-----------------|-----------------| 
D|-----------------|-----------------|-----------------|-----------------| 
A|-------2---------|-----------------|-------2---------|-----------------| 
E|-2---------0-2-0-|-4\--------------|-2---------0-2-0-|-4\--------------| 
| bass                                                                  | 
E|-------2---------|-----------------|-------2---------|-----------------| 
B|-----------2-----|-----------------|-----------2-----|-----------------| 
G|-----------------|-----------------|-----------------|-----------------| 
D|-4---------------|-6\--------------|-4---------------|-6\--------------| 
A|-4---------------|-6\--------------|-4---------------|-6\--------------| 
E|-2---------------|-4\--------------|-2---------------|-4\--------------| 
   guitar 

G|-----------------|-----------------|-----------------|-----------------| 
D|-----------------|-----------------|-----------------|-----------------| 
A|-----------------|-----------------|-----------------|-----------------| 
E|-2---2-2---2---2-|-2---2-2---2---2-|-4---4-4---4---4-|-4---4-4---4---4\| 
| bass                                                                  | 
E|-----------------|-----------------|-----------------|-----------------| 
B|-----------------|-----------------|-----------------|-----------------| 
G|-----------------|-----------------|-----------------|-----------------| 
D|-4---------------|---------------4-|-6---------------|----------------\| 
A|-4---------------|---------------4-|-6---------------|----------------\| 
E|-2---------------|---------------2-|-4---------------|----------------\|
reproducciones 186
Acordes para:

    0 comentarios

    mostrar más comentarios

    ¿Conseguiste tocar?

    3 tocaron 0 aún no

    ¡Graba un vídeo tocando Last Ride In y envianoslo!

    00:00 / 00:00
    outros vídeos desta música
    repetir qualidade Automático
    Outros vídeos desta música
    00:00 / 00:00
    Automático
    OK