Cifra Club

Let Yourself Go

Green Day

Tablatura: Principal (guitarra)
Tom: C
INTRO x2
E|--------------------------------------|-------------------------|
B|--------------------------------------|-------------------------|
G|----7---------------------------------|-------------------------|
D|-5--7--7--7-7-7-7-7-7-7-7-7-7-7-7-7-7-|-7-7-7-7-7-7-7-7-7-7-7-7-|
A|-5--5--7------------------------------|-------------------------|
E|-3-----5--5-5-5-5-5-5-5-5-5-5-5-5-5-5-|-5-5-5-5-5-5-5-5-5-5-5-5-|


VERSE a x2
"Shut your mouth 'cause you're talking too much..."
E|--------------------------------------|-------------------------|
B|--------------------------------------|-------------------------|
G|----7---------------------------------|-------------------------|
D|-5--7--7--7-7-7-7-7-7-7-7-7-7-7-7-7-7-|-7-7-7-7-7-7-7-7-7-7-7-7-|
A|-5--5--7------------------------------|-------------------------|
E|-3-----5--5-5-5-5-5-5-5-5-5-5-5-5-5-5-|-5-5-5-5-5-5-5-5-5-5-5-5-|

VERSE b x1
"Hitch a ride, tell 'em all you like, Small minds tend to think a like..."
E|------------------------------|------------------------------|
B|------------------------------|------------------------------|
G|----7-------------------------|----7-------------------------|
D|-5--7--7--7-7-7-7-7-7-7-7-7-7-|-5--7--7--7-7-7-7-7-7-7-7-7-7-|
A|-5--5--7----------------------|-5--5--7----------------------|
E|-3-----5--5-5-5-5-5-5-5-5-5-5-|-3-----5--5-5-5-5-5-5-5-5-5-5-|

"Shut your mouth 'cause you're talking too much and I don't give a fuck anyway"
E|----------|
B|----------|
G|----7-----|
D|-5--7--7--|
A|-5--5--7--|
E|-3-----5--|


CHORUS a x3
"Let yourself go, let yourself go, let yourself go..."
E|-----------------|-----------------|-----------------|-----------------|
B|-----------------|-----------------|-----------------|-----------------|
G|-7---7-7-7-7-7-7-|-----------------|-----------------|-----------------|
D|-7---7-7-7-7-7-7-|-5---5-5-5-5-5-5-|-7---7-7-7-7-7-7-|-7-7-7-7-7-7-7-7-|
A|-5---5-5-5-5-5-5-|-5---5-5-5-5-5-5-|-7---7-7-7-7-7-7-|-7-7-7-7-7-7-7-7-|
E|-----------------|-3---3-3-3-3-3-3-|-5---5-5-5-5-5-5-|-5-5-5-5-5-5-5-5-|

CHORUS b x1
"Let yourself go..."
E|-----------------|-----------------|-----------------|---------|
B|-----------------|-----------------|-----------------|---------|
G|-7---7-7-7-7-7-7-|-----------------|-----------------|---------|
D|-7---7-7-7-7-7-7-|-5---5-5-5-5-5-5-|-7---7-7-7-7-7-7-|-7-7-7-7-|
A|-5---5-5-5-5-5-5-|-5---5-5-5-5-5-5-|-7---7-7-7-7-7-7-|-7-7-7-7-|
E|-----------------|-3---3-3-3-3-3-3-|-5---5-5-5-5-5-5-|-5-5-5-5-|

CHORUS c x1
"Gotta let it go, gotta let it go..."
E|-----------------------------|-----------------------------|
B|-----------------------------|-----------------------------|
G|-------x-x-x-x-x-x-x-x-x-x-x-|-------x-x-x-x-x-x-x-x-x-x-x-|
D|-5-6-7-x-x-x-x-x-x-x-x-x-x-x-|-5-6-7-x-x-x-x-x-x-x-x-x-x-x-|
A|-5-6-7-x-x-x-x-x-x-x-x-x-x-x-|-5-6-7-x-x-x-x-x-x-x-x-x-x-x-|
E|-3-4-5-x-x-x-x-x-x-x-x-x-x-x-|-3-4-5-x-x-x-x-x-x-x-x-x-x-x-|


VERSE a x2
"Cut the crap 'cause you're screaming in my ear..."
E|--------------------------------------|-------------------------|
B|--------------------------------------|-------------------------|
G|----7---------------------------------|-------------------------|
D|-5--7--7--7-7-7-7-7-7-7-7-7-7-7-7-7-7-|-7-7-7-7-7-7-7-7-7-7-7-7-|
A|-5--5--7------------------------------|-------------------------|
E|-3-----5--5-5-5-5-5-5-5-5-5-5-5-5-5-5-|-5-5-5-5-5-5-5-5-5-5-5-5-|

VERSE b x1
"You're getting on my every last nerve..."
E|------------------------------|------------------------------|
B|------------------------------|------------------------------|
G|----7-------------------------|----7-------------------------|
D|-5--7--7--7-7-7-7-7-7-7-7-7-7-|-5--7--7--7-7-7-7-7-7-7-7-7-7-|
A|-5--5--7----------------------|-5--5--7----------------------|
E|-3-----5--5-5-5-5-5-5-5-5-5-5-|-3-----5--5-5-5-5-5-5-5-5-5-5-|

"I'm sick to death of your every last breath and I don't give a fuck anyway"
E|----------|
B|----------|
G|----7-----|
D|-5--7--7--|
A|-5--5--7--|
E|-3-----5--|


CHORUS a x3
"Let yourself go, let yourself go, let yourself go..."
E|-----------------|-----------------|-----------------|-----------------|
B|-----------------|-----------------|-----------------|-----------------|
G|-7---7-7-7-7-7-7-|-----------------|-----------------|-----------------|
D|-7---7-7-7-7-7-7-|-5---5-5-5-5-5-5-|-7---7-7-7-7-7-7-|-7-7-7-7-7-7-7-7-|
A|-5---5-5-5-5-5-5-|-5---5-5-5-5-5-5-|-7---7-7-7-7-7-7-|-7-7-7-7-7-7-7-7-|
E|-----------------|-3---3-3-3-3-3-3-|-5---5-5-5-5-5-5-|-5-5-5-5-5-5-5-5-|

CHORUS b x1
"Let yourself go..."
E|-----------------|-----------------|-----------------|---------|
B|-----------------|-----------------|-----------------|---------|
G|-7---7-7-7-7-7-7-|-----------------|-----------------|---------|
D|-7---7-7-7-7-7-7-|-5---5-5-5-5-5-5-|-7---7-7-7-7-7-7-|-7-7-7-7-|
A|-5---5-5-5-5-5-5-|-5---5-5-5-5-5-5-|-7---7-7-7-7-7-7-|-7-7-7-7-|
E|-----------------|-3---3-3-3-3-3-3-|-5---5-5-5-5-5-5-|-5-5-5-5-|

CHORUS c x2
"Gotta let it go, gotta let it go..."
E|-----------------------------|-----------------------------|
B|-----------------------------|-----------------------------|
G|-------x-x-x-x-x-x-x-x-x-x-x-|-------x-x-x-x-x-x-x-x-x-x-x-|
D|-5-6-7-x-x-x-x-x-x-x-x-x-x-x-|-5-6-7-x-x-x-x-x-x-x-x-x-x-x-|
A|-5-6-7-x-x-x-x-x-x-x-x-x-x-x-|-5-6-7-x-x-x-x-x-x-x-x-x-x-x-|
E|-3-4-5-x-x-x-x-x-x-x-x-x-x-x-|-3-4-5-x-x-x-x-x-x-x-x-x-x-x-|


SOLO a x1
E|-----------------|-------------------------|-------------------------------|
B|-----------------|-------------------------|-------------------------------|
G|-7---7-7-7-7-7-7-|-9/12--12-12-12-12-12-12-|-9--9-7-6--6-6-6-6-6-6-6-6-6-6-|
D|-----------------|-------------------------|-------------------------------|
A|-5---5-5-5-5-5-5-|-7/10--10-10-10-10-10-10-|-7--7-5-4--4-4-4-4-4-4-4-4-4-4-|
E|-----------------|-------------------------|-------------------------------|

E|-----------------|-------------------------|-----------------------------------|
B|-----------------|-------------------------|-----------------------------------|
G|-7---7-7-7-7-7-7-|-9/12--12-12-12-12-12-12-|-12/14--14-14-14-14-14-14-14-14-14-|
D|-----------------|-------------------------|-----------------------------------|
A|-5---5-5-5-5-5-5-|-7/10--10-10-10-10-10-10-|-10/12--12-12-12-12-12-12-12-12-12-|
E|-----------------|-------------------------|-----------------------------------|


SOLO b x1
E|--------------------|-----10-10-----10-10-----10-10-----10-10-----10-10-|
B|--------------------|-----10-10-----10-10-----10-10-----10-10-----10-10-|
G|-10--10-12-10----10-|-12b-------12b-------12b-------12b-------12b-------|
D|--------------12----|---------------------------------------------------|
A|--------------------|---------------------------------------------------|
E|--------------------|---------------------------------------------------|

E|-----------------------10---10--10--10--10----------------10-|
B|-----------------------13b--13b-13b-13b-13br-10-----------10-|
G|-12b-12r-p10-12-10------------------------------12b----------|
D|-------------------12-------------------------------14-12----|
A|-------------------------------------------------------------|
E|-------------------------------------------------------------|

E|-----10-----10-10-----10-10-----10-10-|--------------------------------------------------------|
B|-----10-----10-10-----10-10-----10-10-|-10---10--10--10---10--14---14--14---14-----------------|
G|-12b----12b-------12b-------12b-------|-12b--12b-12b-12b--12b-16b--16b-16b--16b-16b-16b-16b-14-|
D|--------------------------------------|--------------------------------------------------------|
A|--------------------------------------|--------------------------------------------------------|
E|--------------------------------------|--------------------------------------------------------|


BRIDGE a x4
"Always fuck fuckin' with my head now..."
E|-----------------|-----------------|
B|-----------------|-----------------|
G|-----------------|--------------7--|
D|-7-7-7-7-7-7-7-7-|-7-7-7-7-7-7--7--|
A|-7-7-7-7-7-7-7-7-|-7-7-7-7-7-7--5--|
E|-5-5-5-5-5-5-5-5-|-5-5-5-5-5-5-----|
   .............................

BRIDGE b x1
"Always fuck fuckin' with my head now..."
E|-----------------|-----------------|
B|-----------------|-----------------|
G|-----------------|-----------------|
D|-7-7-7-7-7-7-7-7-|-7-7-7-7---------|
A|-7-7-7-7-7-7-7-7-|-7-7-7-7---------|
E|-5-5-5-5-5-5-5-5-|-5-5-5-5---------|
   ................


CHORUS a x4
"Let yourself go, let yourself go, let yourself go..."
E|-----------------|-----------------|-----------------|-----------------|
B|-----------------|-----------------|-----------------|-----------------|
G|-7---7-7-7-7-7-7-|-----------------|-----------------|-----------------|
D|-7---7-7-7-7-7-7-|-5---5-5-5-5-5-5-|-7---7-7-7-7-7-7-|-7-7-7-7-7-7-7-7-|
A|-5---5-5-5-5-5-5-|-5---5-5-5-5-5-5-|-7---7-7-7-7-7-7-|-7-7-7-7-7-7-7-7-|
E|-----------------|-3---3-3-3-3-3-3-|-5---5-5-5-5-5-5-|-5-5-5-5-5-5-5-5-|


OUTRO a x1
"Let yourself go, let yourself go, let yourself go..."

GUITAR 1 PLAYS CHORUS x4
E|-----------------|-----------------|-----------------|-----------------|
B|-----------------|-----------------|-----------------|-----------------|
G|-7---7-7-7-7-7-7-|-----------------|-----------------|-----------------|
D|-7---7-7-7-7-7-7-|-5---5-5-5-5-5-5-|-7---7-7-7-7-7-7-|-7-7-7-7-7-7-7-7-|
A|-5---5-5-5-5-5-5-|-5---5-5-5-5-5-5-|-7---7-7-7-7-7-7-|-7-7-7-7-7-7-7-7-|
E|-----------------|-3---3-3-3-3-3-3-|-5---5-5-5-5-5-5-|-5-5-5-5-5-5-5-5-|

GUITAR 2 PLAYS SOLO a x2
E|-----------------|-------------------------|-------------------------------|
B|-----------------|-------------------------|-------------------------------|
G|-7---7-7-7-7-7-7-|-9/12--12-12-12-12-12-12-|-9--9-7-6--6-6-6-6-6-6-6-6-6-6-|
D|-----------------|-------------------------|-------------------------------|
A|-5---5-5-5-5-5-5-|-7/10--10-10-10-10-10-10-|-7--7-5-4--4-4-4-4-4-4-4-4-4-4-|
E|-----------------|-------------------------|-------------------------------|

E|-----------------|-------------------------|-----------------------------------|
B|-----------------|-------------------------|-----------------------------------|
G|-7---7-7-7-7-7-7-|-9/12--12-12-12-12-12-12-|-12/14--14-14-14-14-14-14-14-14-14-|
D|-----------------|-------------------------|-----------------------------------|
A|-5---5-5-5-5-5-5-|-7/10--10-10-10-10-10-10-|-10/12--12-12-12-12-12-12-12-12-12-|
E|-----------------|-------------------------|-----------------------------------|

OUTRO b x1
E|-----------------|
B|-----------------|
G|-------------7---|
D|-5-6-7-----5-7-7-|
A|-5-6-7-----5-5-7-|
E|-3-4-5-----3---5-|
reproducciones 1.911
Acordes para:
    Composição: Billie Joe Armstrong / Green Day Colaboración y revision:

    0 comentarios

    mostrar más comentarios

    ¿Conseguiste tocar?

    8 tocaron 0 aún no

    ¡Graba un vídeo tocando Let Yourself Go y envianoslo!

    00:00 / 00:00
    outros vídeos desta música
    repetir qualidade Automático
    Outros vídeos desta música
    00:00 / 00:00
    Automático
    OK