Cifra Club

Little Boy Named Train

Green Day

Tablatura: Principal (guitarra)
Tom: B
INTRO guitarra 1: F#5  E5  C#5  B5  C#5  F#5

INTRO guitarra 2:

E|--6-6-6-6----7-7-6-6-----6-6-6-6----7-6----
B|--7-7-7-7-7--7-7-7-7-----7-7-7-7-7--7-7-9-7
G|----------6----------------------6------6-6
D|-------------------------------------------
A|-------------------------------------------
E|-------------------------------------------


F#5
Where did you come from? Where have you been?

                                       C#5
Looks like you fell into the trash bin

B5
Got to the train, I'm crashing the car

                                            F#5
Back in the day like shooting for the stars

        C#5
Like a life-long daisy chain

   B5      F#5
Of my imagination

C#5
Rat inside a maze

  B5          F#5
I got no destination

            B5         E5    F#5
Cause I'm a little boy named Train

B5            E5   F#5
Ask me again, I'll tell you the same

B5         E5    F#5
Little boy named Train

  C#5
I don't know where I come from

      C#5
But I know where I have been

[F#5  E5  C#5  B5  C#5  F#5]

F#5
Serious people look funny to me

                            C#5
Funny people seem so serious

    B5
I'm always lost and nothing will change

                                           F#5
Give me directions and I'll get lost again

       C#5
Like a life-long daisy chain

   B5      F#5
Of my imagination

C#5
Rat inside a maze

  B5          F#5
I got no destination

            B5         E5    F#5
Cause I'm a little boy named Train

B5            E5   F#5
Ask me again, I'll tell you the same

B5         E5    F#5
Little boy named Train

  C#5
I don't know where I come from

      C#5
But I know where I have been

[F#5  E5  C#5  B5  C#5  F#5]


SOLO:

Guitarra base: F#5  E5  C#5  B5  C#5  F#5

Guitarra solo:

Parte 1:

E|--6-6-6-6----7-7-6-6---6-6-6-6----7-6----
B|--7-7-7-7-7--7-7-7-7---7-7-7-7-7--7-7-9-7
G|----------6--------------------6------6-6
D|-----------------------------------------
A|-----------------------------------------
E|-----------------------------------------

Guitarra base:  F#5        C#5         B5        F#5

Guitarra solo:

Parte 2:

E|-------------------------------------------------
B|-------------------------------------------------
G|-------------------------------------------------
D|--8-8-8-8-4-9-9-8-8---8-8-8-8-4-9-9-8--4-4/6-----
A|-------------------------------------------------
E|-------------------------------------------------

E|-------------------------------------------------
B|-------------------------------------------------
G|--8-8-8-8-4-9-9-8-8---8-8-8-8-4-9-9-8-4-4p3------
D|-------------------------------------------------
A|-------------------------------------------------
E|-------------------------------------------------


       C#5
Like a life-long daisy chain

   B5      F#5
Of my imagination

C#5
Rat inside a maze

  B5          F#5
I got no destination

            B5         E5    F#5
Cause I'm a little boy named Train

B5            E5   F#5
Ask me again, I'll tell you the same

B5         E5   F#5
Little boy named Train


  C#5
I don't know where I come from

      C#5
But I know where I have been

       C#5
I said don't know where I come from

      C#5
But I know whereI have been


[F#5  E5  C#5  B5  C#5  F#5]
reproducciones 337
Acordes para:
    Composição: Green Day Colaboración y revision:
    • Gabriel Abreu

    0 comentarios

    mostrar más comentarios

    ¿Conseguiste tocar?

    2 tocaron 0 aún no

    ¡Graba un vídeo tocando Little Boy Named Train y envianoslo!

    00:00 / 00:00
    outros vídeos desta música
    repetir qualidade Automático
    Outros vídeos desta música
    00:00 / 00:00
    Automático
    OK