Cifra Club

Misery

Green Day

Tablatura: Principal (guitarra)
Tom: F
INTRODUÇÃO:
 
E|---------------------------------------------------
B|-11-10-11----------11-10-11-13-14-10-11------------
G|---------10-11-7-10-----------------10-10-9-8-8/9--
D|---------------------------------------------------
A|---------------------------------------------------
E|---------------------------------------------------

E|--------------------
B|--10------10--11----
G|--10-----8--9--10---
D|--------------------
A|--------------------
E|--------------------

Começa os instrumentos, com  Bb

Verso 1:

   Bb  F (10x)  C   G (2x)  Bb  F (2x)
E|-1---1-----|--3---3----|--1---1--
B|-3---1-----|--5---3----|--3---1--
G|-3---2-----|--5---4----|--3---2-- 
D|-3---3-----|--5---5----|--3---3--
A|-1---3-----|--3---5----|--1---3--
E|-1---1-----|--3---3----|--1---1--
Virginia was a "lot lizard" from F.L.A.
She had a compound fracture in the "trunk"
It started when she ran away

B          D
Thumbs out on the interstate

Bb F x4
She hitched a ride to misery

Bb F (10x)  C G (2x)  Bb F (2x)
"Mr. Whirly" had a catastrophic incident
He fell into the city by the bay
He liquidated his estate

B             D
Now he sleeps upon the Haight

Bb F x4
Panhandling misery

He's gonna get high
When he's low
The fire burns from better days
and she screams why
I said I don't know
The catastrophic hymns from yesterday of misery

Bb  F(10x)  C   G(2x)   Bb  F(2x)
Vinnie was a hustler out of Amsterdam
He ran the drug cartel in "tinseltown"
The found him in a Cadillac

B                 D
Bludgeoned with a baseball bat 

Bb,F x4
In the name of misery

Bb  F (10x)  C   G (2x)  Bb  F (2x)
Gina hit the road to New York City 
Mysteriously the night Vinne Croaked
She stopped in Vegas to elope

B             D
With Virginia and the dope

Bb F 4x
And kissed the bride eternally


And they're gonna get high when they're low
The fire burns from better days
And he screamed why
I said I don't know
The catastrophic hymns of yesterday of misery


Hell hounds on your trail now once again..boy
It's groping on your leg until it sleeps
The emptiness will fill your soul with sorrow
Because it's now what you make..it's what you leave


SOLO:

E|---------------------------------------------------
B|-14-14-12-14-15-14-12-14-15-15-15-15-15-15---------
G|---------------------------------11-11-11-11-11-11-
D|---------------------------------------------------
A|---------------------------------------------------
E|---------------------------------------------------
 
E|---------------------------------------------------
B|-15-15-15-15-17-14-14-14-14-12-14-15-14-12---------
G|--------------11-15--------------------------------
D|---------------------------------------------------
A|---------------------------------------------------
E|---------------------------------------------------
 
E|--------------------------------------------------|
B|--------------14-15-14-14---15-14-12-12-12-12-12--|
G|-15-15-15-15-15-15-----15-15--11------------------|
D|--------------------------------------------------|
A|--------------------------------------------------|
E|--------------------------------------------------|

(Baixo / Trumpet Solo)

And we're gonna get high when I'm low
The fire burns from better days
And she screamed why
I said I don't know
The catastrophic hymns from yesterday of misery

OUTRO SOLO:

E|---------------------------------------------------
B|-14-14-12-14-15-14-12-14-15-15-15-15-15-15---------
G|---------------------------------11-11-11-11-11-11-
D|---------------------------------------------------
A|---------------------------------------------------
E|---------------------------------------------------
 
E|--------------------------------------------------|
B|--14--14--14--12--14--15--14--12------12------12--|
G|----------------------------------11------11------|
D|--------------------------------------------------|
A|--------------------------------------------------|
E|--------------------------------------------------|
reproducciones 577
Acordes para:
    Composição: Green Day Colaboración y revision:
    • George Pinho

    0 comentarios

    mostrar más comentarios

    ¿Conseguiste tocar?

    2 tocaron 0 aún no

    ¡Graba un vídeo tocando Misery y envianoslo!

    00:00 / 00:00
    outros vídeos desta música
    repetir qualidade Automático
    Outros vídeos desta música
    00:00 / 00:00
    Automático
    OK