Cifra Club

Missing You

Green Day

Tablatura: Principal (guitarra)
Tom: A
 Intro: A5 E5 D5 F#5 D5 E5 A5

Verse:

  A5                C#5
Waking up, feeling naked
D5                             E5
In my closest idle room that's vacant
             A5      C#5
Lost my nerve, it's unnerving
D5                           E5         A5
I know there's something i'm forgetting


Pre-Chorus:

   D5         A5     E5      A5
I search the moon I lost my head
D5     A5     E5        A5
I even looked under the bed
D5        A5         E5        A5
I punched the walls, I hit the streets
D5                        E5
I'm pounding the pavement Looking

Chorus:

A5  E5      D5
I'm missing you
A5  C#5     D5 E5
I'm missing you
A5         E5
You're not around
D5                          E5
And i am a complete disaster
A5  C#5     D5
I'm missing you

Verse:

A5               C#5
Remember, it was the first time
D5                 E5
I told you i loved you at the bus station
             A5               C#5
Don't forget, 'cause it's not over
D5                  E5
I'm not lost 'cause i'm just missing you

Pre-Chorus:

    D5         A5     E5      A5
I  search the moon I lost my head
D5     A5     E5        A5
I even looked under the bed
D5        A5         E5        A5
I punched the walls, i hit the streets
D5                        E5
I'm pounding the pavement Looking

Chorus:

A5  E5      D5
I'm missing you
A5  C#5     D5 E5
I'm missing you
A5         E5
You're not around
D5                          E5
And i am a complete disaster
A5  C#5     D5
I'm missing you

Solo :

          A  E  D                   F#m D E   A
E|-----------------------------------------------------|
B|----------------------------5^7-7-5------------------|
G|-7^9-9--7---7-7-7-7-7-7-7-7----------6-6-6-6-6-6-6-6-|
D|-----------------------------------------------------|
A|-----------------------------------------------------|
E|-----------------------------------------------------|

          A  E  D                   F#m D E   A
E|------------------------------------9/12-12-12-12~~--|
B|----------------------------5^7-7-5------------------|
G|-7^9-9--7---7-7-7-7-7-7-7-7--------------------------|
D|-----------------------------------------------------|
A|-----------------------------------------------------|
E|-----------------------------------------------------|

Bridge:

 A5 E5 D5 (2x)      F#5|D5|E5 A5

A5   E5       D5
Well she's my blood,
F#5 D5       E5  A5
And she's my soul
A5 E5    D5
I get so lost,
F#5 D5     E5  A5
Out in the cold
A5     E5  D5
I feel so far,
F#5  D5        E5  A5
Like this lone star
A5 E5   D5
It gets so hard,
F#5  D5  E5      A5
When i'm missing you

A5 E5 D5  F#5 D5 E5 A5 (2x)

Chorus:

A5  E5      D5
I'm missing you
A5  C#5     D5 E5
I'm missing you
A5     E5  D5
You're not around
                      E5
And i am a fucking disaster
A5  C#5     D5
I'm missing you

A5 E5 D5  F#5 D5 E5 A5
reproducciones 2.396
Acordes para:
    Composição: Green Day Colaboración y revision:

    0 comentarios

    mostrar más comentarios

    ¿Conseguiste tocar?

    3 tocaron 0 aún no

    ¡Graba un vídeo tocando Missing You y envianoslo!

    00:00 / 00:00
    outros vídeos desta música
    repetir qualidade Automático
    Outros vídeos desta música
    00:00 / 00:00
    Automático
    OK