Cifra Club

Oh Love

Green Day

Tablatura: Principal (guitarra)
Tom: G#
Intro:
E|-x-x-----x-x-x-------x-x-x---------------------x-x-x-|
B|-x-x-----x-x-x-------x-x-x---------------------x-x-x-|
G|-x-x-----x-x-x-6-----x-x-x-6-6-6-6-6-6-6-6-----x-x-x-|
D|-x-x-6-6-x-x-x-6-6-6-x-x-x-6-6-6-6-6-6-6-6-6-6-x-x-x-|
A|-x-x-6-6-x-x-x-4-6-6-x-x-x-4-4-4-4-4-4-4-4-6-6-x-x-x-|
E|-x-x-4-4-x-x-x---4-4-x-x-x-----------------4-4-x-x-x-|

Verso 1:
E|-------x-x-x-------x-x-x---------------------x-x-x-|
B|-------x-x-x-------x-x-x---------------------x-x-x-|
G|-6-----x-x-x-6-----x-x-x-6-6-6-6-6-6-6-6-----x-x-x-|
D|-6-6-6-x-x-x-6-6-6-x-x-x-6-6-6-6-6-6-6-6-6-6-x-x-x-| (3x)
A|-4-6-6-x-x-x-4-6-6-x-x-x-4-4-4-4-4-4-4-4-6-6-x-x-x-|
E|---4-4-x-x-x---4-4-x-x-x-----------------4-4-x-x-x-|

E|-------x-x-x-------x-x-x-|
B|-------x-x-x-------x-x-x-|
G|-6-----x-x-x-6-----x-x-x-|
D|-6-6-6-x-x-x-6-6-6-x-x-x-|
A|-4-6-6-x-x-x-4-6-6-x-x-x-|
E|---4-4-x-x-x---4-4-x-x-x-|

Pré-Refrão:
E|---------|
B|---------|
G|-6-5-6---|
D|-6-6-6-6-|
A|-4-3-4-6-|
E|-------4-|

E|---------------------------------|
B|---------------------------------|
G|-8-8-8-8-8-8-8-8-8-8-8-8-8-8-8-8-|
D|-8-8-8-8-8-8-8-8-8-8-8-8-8-8-8-8-|
A|-6-6-6-6-6-6-6-6-6-6-6-6-6-6-6-6-|
E|---------------------------------|

Refrão:

E|-------------------------------------|
B|-------------------------------------|
G|---------8-8-8-8---------6-6-6-6-6-6-|
D|-6-6-6-6-8-8-8-8-6-6-6-6-6-6-6-6-6-6-|
A|-6-6-6-6-6-6-6-6-6-6-6-6-4-4-4-4-4-4-|
E|-4-4-4-4---------4-4-4-4-------------|

E|---------------------------------------------|
B|---------------------------------------------|
G|---------8-8-8-8-8-------------8-8-8-8-8-8-8-|
D|-6-6-6-6-8-8-8-8-8-6-6-6-6-6-0-8-8-8-8-8-8-8-|
A|-6-6-6-6-6-6-6-6-6-6-6-6-6-6-0-6-6-6-6-6-6-6-|
E|-4-4-4-4-----------4-4-4-4-4-0---------------|

E|-------------------------------------------------------|
B|-------------------------------------------------------|
G|---------8-8-8-8---------6-6-6-6-6-6---------8-8-8-8-8-|
D|-6-6-6-6-8-8-8-8-6-6-6-6-6-6-6-6-6-6-6-6-6-6-8-8-8-8-8-|
A|-6-6-6-6-6-6-6-6-6-6-6-6-4-4-4-4-4-4-6-6-6-6-6-6-6-6-6-|
E|-4-4-4-4---------4-4-4-4-------------4-4-4-4-----------|

Após o 1º Refrão:

E|------------------------------------|
B|------------------------------------|
G|-------6-------6-6-6-6-6-6-6-6------|
D|-6-6---6-6-6---6-6-6-6-6-6-6-6-6-6--|
A|-6-6---4-6-6---4-4-4-4-4-4-4-4-6-6--|
E|-4-4-----4-4-------------------4-4--|

Verso 2 : Igual ao Verso 1

Guitarra 2 no Verso 2(Fica repetindo o acorde até chegar no pré-refrão):

E|------|
B|------|
G|-13...|
D|-x-...|
A|-11...|
E|------|

Bridge:
E|----------------------------------------------------------|
B|----------------------------------------------------------|
G|--------------------6-6--6-6--------------6-6-6-6-6-6-6-6-|
D|-6-6-6-6-6-6-6-6--4-6-6--6-6--6-6--6-6--4-6-6-6-6-6-6-6-6-|
A|-6-6-6-6-6-6-6-6--4-4-4--4-4--6-6--6-6--4-4-4-4-4-4-4-4-4-|
E|-4-4-4-4-4-4-4-4--2-----------4-4--4-4--2-----------------|

E|-----------------|
B|-----------------|
G|-----------------|
D|-6-6-6-6-6-6-6-6-|
A|-6-6-6-6-6-6-6-6-|
E|-4-4-4-4-4-4-4-4-|

E|-------------------------------------------------------------|
B|-------------------------------------------------------------|
G|---6-6--6-6------8-10-10-10-10---6--5--6-----8-8-8-8-8-8-8-8-|
D|-4-6-6--6-6--6-6-8-10-10-10-10---6--6--6--6--8-8-8-8-8-8-8-8-|
A|-4-4-4--4-4--6-6-6-8--8--8--8----4--3--4--6--6-6-6-6-6-6-6-6-|
E|-2-----------4-4--------------------------4------------------|

Base do Solo:
E|---------------------------------|
B|---------------------------------|
G|---------8-8-8-8---------6-6-6-6-|
D|-6-6-6-6-8-8-8-8-6-6-6-6-6-6-6-6-|
A|-6-6-6-6-6-6-6-6-6-6-6-6-4-4-4-4-|
E|-4-4-4-4---------4-4-4-4---------|

E|-----------------|
B|-----------------|
G|---------8-8-8-8-|
D|-6-6-6-6-8-8-8-8-| (3x)
A|-6-6-6-6-6-6-6-6-|
E|-4-4-4-4---------|

E|---------------------------|
B|---------------------------|
G|---------6-6-6-6---6-5-6---|
D|-6-6-6-6-6-6-6-6---6-6-6-6-|
A|-6-6-6-6-4-4-4-4---4-3-4-6-|
E|-4-4-4-4-----------------4-|

E|---------------------------------|
B|---------------------------------|
G|-8-8-8-8-8-8-8-8-8-8-8-8-8-8-8-8-|
D|-8-8-8-8-8-8-8-8-8-8-8-8-8-8-8-8-|
A|-6-6-6-6-6-6-6-6-6-6-6-6-6-6-6-6-|
E|---------------------------------|

Solo:
E|---------------------------|-------------------------|
B|---------------------------|-------------------------|
G|---------------------------|-3/5--5--3-5-5/6--6--5-6-|
D|-3-5-6---6--5-6-8---8--6-8-|-------------------------|
A|---------------------------|-------------------------|
E|---------------------------|-------------------------|

E|-------4------------------------------------|---4-------------------|
B|-----4------6b8r4---------------------------|-4---7b9-b9-b9-b9-7\---|
G|-6b8-----6b8------6-6b8r4---4-4b6r4---4-6b8-|-----------------------|
D|--------------------------6---------6-------|--------------------\\-|
A|--------------------------------------------|--------------------\\-|
E|--------------------------------------------|--------------------\\-|

E|-----------------------------------------------------|----------------|
B|--9--9--8-9-11--11--9-11-13--13--11-13-14--13--11-13-|-14--13--14-----|
G|-----------------------------------------------------|-------------13-|
D|-----------------------------------------------------|----------------|
A|-----------------------------------------------------|----------------|
E|-----------------------------------------------------|----------------|

E|-11--11--11-13-15--15--15-16-|-18--18--18-20-21--18--21b-|
B|-----------------------------|---------------------------|
G|-----------------------------|---------------------------|
D|-----------------------------|---------------------------|
A|-----------------------------|---------------------------|
E|-----------------------------|---------------------------|

Após o Solo:
E|-----x-x-x-------x-x-x---------------------x-x-x-|
B|-----x-x-x-------x-x-x---------------------x-x-x-|
G|-----x-x-x-6-----x-x-x-6-6-6-6-6-6-6-6-----x-x-x-|
D|-6-6-x-x-x-6-6-6-x-x-x-6-6-6-6-6-6-6-6-6-6-x-x-x-|
A|-6-6-x-x-x-4-6-6-x-x-x-4-4-4-4-4-4-4-4-6-6-x-x-x-|
E|-4-4-x-x-x---4-4-x-x-x-----------------4-4-x-x-x-|

Verso 3:
E|-------x-x-x-------x-x-x---------------------x-x-x-|
B|-------x-x-x-------x-x-x---------------------x-x-x-|
G|-6-----x-x-x-6-----x-x-x-6-6-6-6-6-6-6-6-----x-x-x-|
D|-6-6-6-x-x-x-6-6-6-x-x-x-6-6-6-6-6-6-6-6-6-6-x-x-x-|
A|-4-6-6-x-x-x-4-6-6-x-x-x-4-4-4-4-4-4-4-4-6-6-x-x-x-|
E|---4-4-x-x-x---4-4-x-x-x-----------------4-4-x-x-x-|

E|-------x-x-x-------x-x-x-|
B|-------x-x-x-------x-x-x-|
G|-6-----x-x-x-6-----x-x-x-|
D|-6-6-6-x-x-x-6-6-6-x-x-x-|
A|-4-6-6-x-x-x-4-6-6-x-x-x-|
E|---4-4-x-x-x---4-4-x-x-x-|

Final:
E|---------------------------------------------------------------|
B|---------------------------------------------------------------|
G|---------8-8-8-8---------6-6-6-6---------8-8-8-8---------6-6---|
D|-6-6-6-6-8-8-8-8-6-6-6-6-6-6-6-6-6-6-6-6-8-8-8-8-6-6-6-6-6-6-6-|
A|-6-6-6-6-6-6-6-6-6-6-6-6-4-4-4-4-6-6-6-6-6-6-6-6-6-6-6-6-4-4-6-|
E|-4-4-4-4---------4-4-4-4---------4-4-4-4---------4-4-4-4-----4-|

(Introdução)

(Verso 1)
Oh love, oh love
Won't you rain on me tonight?
Oh life, oh life
Please don't pass me by

Don't stop, don't stop
Don't stop when the red light flash
Oh ride, free ride

(Pré-Refrão)
Won't you take me close to you?

(Refrão)
Far away, far away
Waste away tonight
I'm wearing my heart on a noose
Far away, far away
Waste away tonight
Tonight my heart's on the loose

(Após o 1º Refrão)

(Verso 2)
Oh lights and action
I just can't be satisfied
Oh losers and choosers
Won't you please hold on my life

(Entra a Guitarra 2)
Oh hours and hours
Like the dog years of the day
Old story, same old story

(Pré-Refrão)
Won't you see the light of day

(Refrão)
Far away, far away
Waste away tonight
I'm wearing my heart on a noose
Far away, far away
Waste away tonight
Tonight my heart's on the loose

(Bridge)
Talk myself out of feeling
Talk my way out of control
Talk myself out of falling in love
Falling in love with you

(Solo)

(Após o Solo)
(Verso 3)
Oh love, oh love
Won't you rain on me tonight?
Oh ride, free ride

(Pré-Refrão)
Won't you take me close to you?

(Refrão)
Far away, far away
Waste away tonight
I'm wearing my heart on a noose
Far away, far away
Waste away tonight
Tonight my heart's on the loose

(Refrão)
Far away, far away
Waste away tonight
I'm wearing my heart on a noose
Far away, far away
Waste away tonight
Tonight my heart's on the loose

(Final)
Tonight my heart's on the loose
Tonight my heart's on the loose
reproducciones 7.992
Acordes para:
    Composição: Billie Joe Armstrong / Green Day Colaboración y revision:
    • Raul Horta
    • Nathalia Pereira

    0 comentarios

    mostrar más comentarios

    ¿Conseguiste tocar?

    25 tocaron 2 aún no

    ¡Graba un vídeo tocando Oh Love y envianoslo!

    00:00 / 00:00
    outros vídeos desta música
    repetir qualidade Automático
    Outros vídeos desta música
    00:00 / 00:00
    Automático
    OK